Zombie Rob - Never Gonna Stop, аккорды

Прокрутка
Тональность
Шрифт
100
NEVER GONNA STOP
Rob Zombie
(From the 2001 Album THE SINISTER URGE)
Words and Music by Rob Zombie and Scott Humphrey


( Can anyone tell me the meaning of this song!!!!!)

          D5                   G5                   A5                   C5
      x 5 7 7 x x          3 5 x x x x          5 7 x x x x         8 10 x x x x

Gtr I (D G C F A D) - 'Electric (w/distortion)'
Gtr II (D G C F A D) - 'Electric (w/distortion)'
Gtr III (D G C F A D) - 'Acoustic'

 h   - hammer-on
 b   - bend
 r   - bend release (if no number after the r, then release immediately)
 s   - legato slide
 PM  - palm muting
 =   - hold bend; also acts as connecting device for hammers/pulls
 x   - on rhythm slash represents muted slash
 ()  - still ringing the previous note
    - slide  out of 

 Intro
  
               N.C.
  Gtr I
          
|-----------------|-----------------|-----------------|-------------------|
|-----------------|-----------------|-----------------|-------------------|
|-----7-----9-----|-5-----5-----5s7-|-----7-----9-----|-5-----5-----5s4---|
|-0-0---0-0---0-0-|---0-0---0-0-----|-0-0---0-0---0-0-|---0-0---0-0-------|
|-----------------|-----------------|-----------------|-------------------|
|-----------------|-----------------|-----------------|-------------------|


Pre Verse

Double Guitar- Guitar I and Guitar II playing at the same time 

 repeat this 2 times
   Gtr I 
||--------------------------|------------------------|
||--------------------------|------------------------|
||-------7---------9--------|--5------5---------5s=7-|
||--0-0----0---0-------0--0-|----0-0------0--0-------|
||--------------------------|------------------------|
||--------------------------|------------------------|
|
|   Gtr II
|   
||--------------------------|------------------------|
||--------------------------|------------------------|
||------19--------21--------|-17-----17--------17-19-|
||--------------------------|------------------------|
||--------------------------|------------------------|
||--------------------------|------------------------|


  Gtr I
|-------------------------|--------------------------||
|-------------------------|--------------------------||
|------7---------9--------|--5------5---------5s=4---||
|-0-0----0---0-------0--0-|----0-0------0--0---------||
|-------------------------|--------------------------||
|-------------------------|--------------------------||
|
| Gtr II 
|-------------------------|--------------------------||
|-------------------------|--------------------------||
|-----19--------21--------|-17-----17--------17-16---||
|-------------------------|--------------------------||
|-------------------------|--------------------------||
|-------------------------|--------------------------||


   Chorus 1
    D5
    Gtr III
    
||----------------------|----------------------||
||----------------------|----------------------||
||--7-----7-7-----------|-7-----7-7------------||
 
 
Свернуть Распечатать