Зоопарк - Сладкая N, аккорды

Прокрутка
Тональность
Шрифт
100
       C           F     G
Я проснулся днем одетым в кресле
C                   F       G
Всвоей каморке меж знакомых стен.
        C               F       G
Я ждал тебя до утра, интересно где ты
      F          G            C
Провела эту ночь, моя сладкая N.   

Проигрыш:
C F G 
------------------------------
----------------------------0-
--------------------0-2-------
----------0-2-3---------------
-2^3--------------------------
------------------------------

C F G 
------------------
-1^3-1-1----------
----------------2-
------------------
------------------
------------------

C F G
------------------------------
----------------------------0-
--------------------0-2-------
----------0-2-3---------------
-2^3--------------------------
------------------------------

    C                  F      G
И я кое-как встал и почистил зубы
    C                  F      G
И, подумав, решил, что бриться мне лень
    C                  F      G
И я пошел туда, куда глядели глаза,
    C                  F      G
Благо-было светло, благо-был уже день.
    C                  F    G
И на мосту я встретил Шабашова, 
    C                  F  G
И он сказал, что знает меня,
    C                  F      G
И у него был рубль, и уменя-четыре,
    C                  F      G
И всвязи с этим мы взяли две бутылочки сухого,
    C                  F      G
И он отвел меня в странные гости,
    C                  F      G
Там все сидели за накрытым столом,
    C                  F      G
Там пили портвейн, там играли в кости
    C                  F   G
И называли друг друга говном.
    C                  F      G
Все было так, как бывает в мансардах,
    C                  F    G
Из двух колонок доносился Бах,
    C                  F      G
И каждый думал о своем: кто-о шести миллиардах,
    C                  F      G
А кто-, всего лишь, о трех рублях.
    C                  F      G
Не принимая участия в общем веселье,
    C                  F    G
Я засел в углу и потягивал ром,
    C                  F      G
А люди приходили, и опять уходили,
    C                  F      G
И опять посылали козлов в гастроном.
    C                  F   G
И дамы были довольно любезны,
    C                  F      G
И одна из них пыталась захватить меня в плен,
    C                  F      G
А я молчал-пень пнем и думал: где и с кем ты
      F         G             C
Провела эту ночь, моя сладкая N.

Проигрыш:
C F G 
------------------------------
----------------------------0-
--------------------0-2-------
----------0-2-3---------------
-2^3--------------------------
------------------------------

C F G 
------------------
-1^3-1-1----------
----------------2-
------------------
------------------
------------------

C F G
------------------------------
----------------------------0-
--------------------0-2-------
----------0-2-3---------------
-2^3--------------------------
------------------------------

         C                  F      G  
И я был зол на себя, я был зол на вечер
    C                  F      G
И к тому же с трудом отыскал свой сапог
    C                  F      G
И, хотя меня так просили остаться, 
    C                F  G
Я ушел, хотя остаться мог.
    C                  F      G
И когда я пришел, ты тихонько спала,
    C                  F      G
И я не стал тебя будить и устраивать сцен,
    C                  F      G
Я подумал, что не так уж это важно-где и с кем ты
      F         G            C
Провела эту ночь, МОЯ СЛАДКАЯ N.   
 
 

Видео