Звери - Напитки покрепче, аккорды

Прокрутка
Тональность
Шрифт
100
Вступление:
    Cm       F     B  Dm  Gm    Cm      F  B  Dm Gm
E|---20/22-20------18/20-18-------20/22-20-----------------------|
B|-20------------18-------------20---------18-20-----------------|
G|-----------------------------------------------19-17-----------|

   Cm        F     B  Dm  Gm    Cm      F  B  Dm Gm         Eb
E|---20/22-20------18/20-18-------20/22-20-----------------------|
B|-20------------18-------------20---------23-22-2015-16-18/20--|
G|---------------------------------------------------------------|

Gm		Cm
И нигде и ни во сколько
F		Gm
Повстречались и забыли
Gm		Cm
Брызги капельки осколки
F		Gm
Никого не зацепили

Gm		Cm
Брызги капельки на ветер
F		Gm
И тебя никто не тронет
Gm		Cm
Дядя Степа на конфете
F		Gm
Помещается в ладони

Припев:
  Cm	   F	     B   Dm Gm
Напитки покрепче слова покороче
  Cm	   F	     B   Dm Gm
Так проще так легче стираются ночи
  Cm	   F	     B   Dm Gm
Звонки без ответа слова и улыбки
                              Eb
Вчерашнее лето - смешная ошибка

Gm		Cm
А давай как будто праздник
F		Gm
В небо шарики салюты
Gm		Cm
Синий белый желтый красный
F		Gm
Брызги капельки минуты

Падаю на ровном месте
F		Gm
Зацепится бы за воздух
Там где нолик ставил крестик
F		Gm
Там где рано ставил поздно

Припев:
  Cm	   F	     B   Dm Gm
Напитки покрепче слова покороче
  Cm	   F	     B   Dm Gm
Так проще так легче стираются ночи
  Cm	   F	     B   Dm Gm
Звонки без ответа слова и улыбки
                              Eb
Вчерашнее лето - смешная ошибка

Gm		Cm
Брызги капельки минуты
F		Gm
Становился чемпионом
Gm		Cm
Выбирал себе маршруты
F		Gm
Выбирал себе перроны

Gm		Cm
И нигде и ни во сколько
F		Gm
Чтобы не было вопросов
Gm		Cm
Брызги капельки осколки
F		Gm
Холостые папиросы

Припев:
  Cm	   F	     B   Dm Gm
Напитки покрепче слова покороче
  Cm	   F	     B   Dm Gm
Так проще так легче стираются ночи
  Cm	   F	     B   Dm Gm
Звонки без ответа слова и улыбки
                              Eb
Вчерашнее лето - смешная ошибка

Соло:
E|--------13/15---15-----------------------------------------------
B|-------------------18-18---15h16p15------------------------------
G|------------------------------------17-15-14-15-14----14-15-17---
D|---------------------------------------------------17------------
A|-----------------------------------------------------------------
E|-----------------------------------------------------------------

----------------13/15---------------------------15--15-17-18-18/20-
--13/15-16-15----------18-16-15h16p15---------15-------------------
-------------17----------------------17--15-17---------------------
-------------------------------------------------------------------
-------------------------------------------------------------------
-------------------------------------------------------------------

---22-20-----------------------22--23-22-20-------------------------|
---------22-23-22-20---20-22-23--------------23--22--2015-16-18/20--|
---------------------22---------------------------------------------|
--------------------------------------------------------------------|
--------------------------------------------------------------------|
--------------------------------------------------------------------|

Комментарий автора:

Бой: вниз вверх.
 
 

Видео