Звери - Маленькая "с", аккорды

Прокрутка
Тональность
Шрифт
100
Куплет 1:
    Am          D       Em
мы запускаем в космос корабль
     Am        D       Em
включается протянутый кабель
   Am        D
планета голубая
   G         C
пока мы исчезаем
   Am   Em
пока пока

    Am          D        Em
вокруг темно и можно разбиться
    Am        D       Em
не хочется но это случится
   Am        D
алло не отвечали
    G         C
мы быстро исчезали
    Am         C
мы быстро исчезали
     C        B
и с нами исчезали

Припев:
  C             D
звезды в звездолетах
  Bm       Em
храбрые пилоты
C             Am       Em
расставанье маленькая "с"
  C         D
провода искрятся
 Bm        Em
нам не удержаться
 C           Am        Em
расставанье маленькая "с"   
 C           Am        Em
расставанье маленькая "с"   
 C           Am        Em
расставанье маленькая "с"   

Куплет 2:
    Am          D    Em
я нажимаю первую слева
    Am          D       Em
толчок прощай созвездие девы
    Am          D      
садишься и включаешь
   G         C
ты точно улетаешь
   Am   Em
пока пока

    Am          D       Em
антенны выше крыши антенны
    Am          D       Em
посадка высадка на измены
    Am          D     
ломались сигареты
   G         C
мы потерялись где-то
   Am         C
мы потерялись где-то
     C        B
мы потерялись где-то

Припев:
  C             D
звезды в звездолетах
  Bm       Em
храбрые пилоты
C             Am       Em
расставанье маленькая "с"
  C         D
провода искрятся
 Bm        Em
нам не удержаться
 C           Am        Em
расставанье маленькая "с"   
 C           Am        Em
расставанье маленькая "с"   
 C           Am        Em
расставанье маленькая "с"   

Куплет 3:
    Am          D       Em
мы запускаем в космос корабль
    Am          D       Em
включается протянутый кабель
    Am        D       
планета голубая
   G         C
пока мы исчезаем
   Am    Em
пока пока

    Am          D       Em
вокруг темно и можно разбиться
    Am          D       Em
не хочется но это случится
    Am        D     
алло не отвечали
   G         C
мы быстро исчезали
   Am         C
мы быстро исчезали
     C        B
и с нами исчезали

Припев:
  C             D
звезды в звездолетах
  Bm       Em
что же вы, пилоты
C             Am       Em
расставанье маленькая "с"
  C         D
провода искрятся
 Bm        Em
нам не удержаться
 C           Am        Em
расставанье маленькая "с"   
 C           Am        Em
расставанье маленькая "с"   
 C           Am        Em
расставанье маленькая "с"   

Solo:
       C  D  Em         C   D     Em      C D  Em         C     D       Em
E-----------------------------------|-------------------------------------|
B-----------------10-8--8-8-7-------|---------------10-8--8--8--7-8-10-12-|
G----7-7-----7--7-------------9-7-9-|---7-7----7--7---------9-------------|
D--9--------9--9--------------------|-9-------9--9------------------------|
A-----------------------------------|-------------------------------------|
E-----------------------------------|-------------------------------------|

Е------7/10---7/10-7/10---14-12--12-12-14-12-10-12-|
B--------------------------------------------------|
G----7---------------------------------------------|
D--9-----------------------------------------------|
A--------------------------------------------------|
E--------------------------------------------------|

Е-12-10/12--10/12-12/10-10/12-12p10h12--12-10----10----------------------------|
B---------------------------------------------12----12-10--12-10----10---------|
G----------------------------------------------------------------12----12-11-9-|
D------------------------------------------------------------------------------|
A------------------------------------------------------------------------------|
E------------------------------------------------------------------------------|

E-------------7------------------------------------|----------------------------------------|
B------8--8-8-8-8-10-10-8-8-8-10-8-7---10-10p8-7---|------------------10-8--8--8--7-8-10-12-|
G----7---9-9-------9--9---9----9-----9------------9|------7--7---7--7---------9-------------|
D--9-----------------------------------------------|9--9--9-------9-------------------------|
A--------------------------------------------------|----------------------------------------|
E--------------------------------------------------|----------------------------------------|

    C   Am   Em   C   Am    Em
E----------------------------|
B---8-8-7---------8-8-7------|
G---9----9-7-9----9-----9-7-9|
D----------------------------|
A----------------------------|
E----------------------------|

Комментарий автора:

В припеве играется перебор на второй гитаре следующий:
   C     D     Bm    Em     C     Am    Em
E--3-----5-----7-----7----|-3-----5-----7---7---7--|
B---5-5---7-7---7-7---8-8-|--5-5---5-5---8---8---8-|
G----5-----7-----7-----9--|---5-----5-----9---9----| x2 
D-------------------------|------------------------|
A-------------------------|------------------------|
E-------------------------|------------------------|
 
 

Видео