ZZ Top - Poke Chop Sandwich, аккорды

Прокрутка
Тональность
Шрифт
100
Intro:
|------------|
|-5-5--5-----|
|-5-5--5-----| (Plucked with fingers)
|-5-5--5-----|
|------------|
|------------|

|-----------------------------|--------------------------------|
|-----------------------------|--------------------------------|
|-7^p5------------------------|-7^p5-7^~~~---------------------|
|------7~~~-------------------|--------------------------------|
|-----------------------------|--------------------------------|
|-----------------------------|--------------------------------|

|-----------------------------|--------------------------------|
|-----------------------------|--------------------------------|
|-7^p5------------------------|-7^p5-7^(slow bend)-------------|
|------7~~~-------------------|--------------------------------|
|-----------------------------|--------------------------------|
|-----------------------------|--------------------------------|

Verse: (Chorus/flanger effect)
|-----------------------------|--------------------------------|
|-----------------------------|--------------------------------|
|--------------------------5--|-----------------------------5--|
|----------------------2-2-5--|-------------------------2-2-5--|
|----------------------0-0-3--|-------------------------0-0-3--|
|-----------------------------|--------------------------------|
"poke chop sandwich..."

|-----------------------------|--------------------------------|
|-----------------------------|--------------------------------|
|--------------------------5^-|---------------------------12h14~~~~
|----------------------2-2-5^(slow bend)----------------2------|
|----------------------0-0-3^-|-------------------------0------|
|-----------------------------|--------------------------------|

|-----------------------------|--------------------------------|
|-----------------------------|--------------------------------|
|--------------------------5--|-----------------------------5^-|
|----------------------2-2-5--|-------------------------2-2-5^-|
|----------------------0-0-3--|-------------------------0-0-3^-|
|-----------------------------|--------------------------------|

|-----------------------------|--------------------------------|
|-----------------------------|--------------------------------|
|--------------------------5--|--------------------------------|
|----------------------2-2-5--|--------------------------------|
|----------------------0-0-3--|------------------(wierd noises)|
|-----------------------------|--------------------------------|

Chorus: (no effect)
|--------------------------------|
|--------------------------------|
|-2-2----2-2---2----2-2-2----2-2-|
|-2-2----2-2---2----2-2-2----2-2-|
|-0-0-3^-0-0---0-3^-0-0-0-3^-0-0-|
|--------------------------------|

|--------------------------------|
|--------------------------------|
|-5-5----5-5---5----5-5-5----5-5-|
|-5-5----5-5---5----5-5-5----5-5-|
|-3-3-6^-3-3---3-6^-3-3-3-6^-3-3-|
|--------------------------------|

|------------|
|------------|
|------------|
|-7-7-7------|
|-7-7-7------|
|-5-5-5------|
 
 

Видео