ZZ Top - Woke Up With Wood, аккорды

Прокрутка
Тональность
Шрифт
100
intro lead riff repeat 4X
|--(8)---------------------------(8)-------------------|
|--------8-------------------------------8-------------|
|---------10--8--------------8------------10--8--------|
|----------------10~~~-------8-------------------10~~~-|
|------------------------8h10--------------------------|
|------------------------------------------------------|
 
4x
|--------------------------------|------------------------------------------
|--------------------------------|---8------------------8-------------------
|-------------8-----8---10-------|---8-10--------10-----8-10--------10------
|-------10----8-----8---10-------|-----10----10--10-------10----10--10------
|--------10----------------------|-----------10-----------------10----------
|--------------------------------|------------------------------------------
"When I woke up this mornin.."

----------------------
----------------------
--------8---10---10---
---10---8---10---10---Solo..
---10-----------------
----------------------
 
 

Видео