ZZ Top - Bad To The Bone, аккорды

Прокрутка
Тональность
Шрифт
100
Em C Em C 
  
Tuning: DGCFAD  
D||-------------------------------|--0--------------0--------------|  
B||----------------0-----5--0--3⁄-|--0--------------0-----5--0--3⁄-|  
G||----------------0--0--5--0--3⁄-|--0--------------0--0--5--0--3⁄-|  
D||----------------0--0--5--0--3⁄-|--0--------------0--0--5--0--3⁄-|  
G||-------------------------------|--------------------------------|  
D||-------------------------------|--------------------------------|  
  
E|-0--------------0--------------|--0--------------0----------------|  
B|-0--------------0-----5--0--3⁄-|--0--------------0-----5--0--3/12-|  
G|-0--------------0--0--5--0--3⁄-|--0--------------0--0--5--0--3/12-|  
D|-0--------------0--0--5--0--3⁄-|--0--------------0--0--5--0--3/12-|  
A|-------------------------------|----------------------------------|  
E|-------------------------------|----------------------------------|  
  
E|-0--------15⁄---0----------------|--0-------------------0--------------|  
B|-0--------15⁄---0-------5--0--3⁄-|--0--11⁄---5/---12~---0-----5--0--3⁄-|  
G|-0--------------0----0--5--0--3⁄-|--0--11⁄---5/---12~---0--0--5--0--3⁄-|  
D|-0--------------0----0--5--0--3⁄-|--0--11⁄---5/---12~---0--0--5--0--3⁄-|  
A|---------------------------------|-------------------------------------|  
E|---------------------------------|-------------------------------------|  
  
E|------------12----------------------------|  
B|-0--11/-12------12---------------5--0--3⁄-|  
G|-0--11/-12----------12----12--0--5--0--3⁄-|  
D|-0------------------------12--0--5--0--3⁄-|  
A|------------------------------------------|  
E|------------------------------------------|  
  
Know the day I was born...  
E|-0-------------------0--------------||---0----------------------------|  
B|-0--11⁄---5/---12~---0-----5--0--3⁄-||---0-------------------5--0--3⁄-|  
G|-0--11⁄---5/---12~---0--0--5--0--3⁄-||*--0----------------0--5--0--3⁄-|  
D|-0--11⁄---5/---12~---0--0--5--0--3⁄-||*--0----------------0--5--0--3⁄-|  
A|------------------------------------||--------------------------------|  
E|------------------------------------||--------------------------------|  
  
5x  
E|-0-----------------------------||--0-------------------------12-|  
B|-0-------------------5--0--3⁄--||--0-------------------5--0/-12-|  
G|-0----------------0--5--0--3⁄-*||--0----------------0--5--0/-12-|  
D|-0----------------0--5--0--3⁄-*||--0----------------0--5--0/----|  
A|-------------------------------||-------------------------------|  
E|-------------------------------||-------------------------------|  
  
Guitar Solo  
  
E|-0--------12/---0----------------|------------------------------------|  
B|-0--------12/---0-------5--0--3--|--0----------------------0-----0----|  
G|-0--------------0----0--5--0--3--|--0--11/-12~-------12⁄---0--3--0----|  
D|-0--------------0----0--5--0--3--|--0--11/-12~-------12⁄---0--3--0--4-|  
A|---------------------------------|------------------------------------|  
E|---------------------------------|------------------------------------|  
  
E|------------12---------------------------|  
B|----------------12-----------------------|  
G|-0--11/-12----------12--12⁄---0-----0--3-|  
D|-0--11/-12--------------12⁄---0/-3--0--3-|  
A|-----------------------------------------|  
E|-----------------------------------------|  
  
E|----3----2/3----2/3--0---------------|  
B|-0/-3----2/3----2/3--0----0----------|  
G|-0/-3----2/3----2/3--0----0-----0--3-|  
D|-0---------------------------3--0----|  
A|-------------------------------------|  
E|-------------------------------------|  
  
E|----------------------------------|  
B|-0----------------0----0----------|  
G|-0--2/-3--3----3/-0----0--3--0/-3-|  
D|-0--2/-3--3----3/-0----0--3--0/-3-|  
A|----------------------------------|  
E|----------------------------------|  
  
E|-0---------------------------------------|  
B|-0---------------------------------------|  
G|-0--11⁄---5/---12~-12~---12~-12~-12~-12~-|  
D|-0--11⁄---5/---12~-12~---12~-12~-12~-12~-|  
A|-----------------------------------------|  
E|-----------------------------------------|  
  
E|-----------------------------------------12~-----|  
B|-------------------------------------12~-----12~-|  
G|-12~-12~-12~-12~-12~-12~-12~-12~-12~-------------|  
D|-12~-12~-12~-12~-12~-12~-12~-12~-12~-------------|  
A|-------------------------------------------------|  
E|-------------------------------------------------|  
  
E|-----------------------------------------12~-----|  
B|-------------------------------------12~-----12~-|  
G|-12~-12~-12~-12~-12~-12~-12~-12~-12~-------------|  
D|-12~-12~-12~-12~-12~-12~-12~-12~-12~-------------|  
A|-12~-12~-12~-------------------------------------|  
E|-------------------------------------------------|  
  
E|---------------------------------12~-------------|  
B|-----------------------------12~-----12~---------|  
G|-12~-12~-12~-12~-12~-12~-12~-------------12~-12~-|  
D|-12~-12~-12~-12~-12~-12~-12~---------------------|  
A|-12~-12~-12~-12~-12~-12~-------------------------|  
E|-------------------------------------------------|  
  
E|---------------------------------12~-------------|  
B|-12~-12~---------------------12~-----12~---------|  
G|-12~-12~-12~-12~-12~-12~-12~-------------12~-12~-|  
D|---------12~-12~-12~-12~-12~-------------12~-12~-|  
A|-------------12~-----12~-------------------------|  
E|-------------------------------------------------|  
  
E|--------------------------------------------0-|  
B|--------------------------------------------0-|  
G|-12--12--12--12--12--12--12--12--12--12⁄-0--0-|  
D|-12--12--12--12--12--12--12--12--12--12⁄-0--0-|  
A|----------------------------------------------|  
E|----------------------------------------------|  
  
E|-0-----------0--0------------12--||---0----------------------------|  
B|-0-----------0--0------0-----12--||---0----------------0--5--0--3⁄-|  
G|-0--------4--0--0------0--0/-12--||*--0----------------0--5--0--3⁄-|  
D|-0--------4--0--0------0--0------||*--0----------------0--5--0--3⁄-|  
A|---------------------------------||--------------------------------|  
E|---------------------------------||--------------------------------|  
  
E|-0----------------------------|--0----------------------------|  
B|-0----------------0--5--0--3⁄-|--0----------------0--5--0--3⁄-|  
G|-0----------------0--5--0--3⁄-|--0----------------0--5--0--3⁄-|  
D|-0----------------0--5--0--3⁄-|--0----------------0--5--0--3⁄-|  
A|------------------------------|-------------------------------|  
E|------------------------------|-------------------------------|  
  
2x  
E|-0-----------------------------||--0------------12------------------|  
B|-0----------------0--5--0--3⁄--||--0----------------0------5--0--3⁄-|  
G|-0----------------0--5--0--3⁄-*||--0--------12------0------5--0--3⁄-|  
D|-0----------------0--5--0--3⁄-*||--0--------12------0------5--0--3⁄-|  
A|-------------------------------||-----------------------------------|  
E|-------------------------------||-----------------------------------|  
  
E|-------3--3--3--3--5----------------|  
B|-0/-3-----3--3--3-----0-----5--0--3-|  
G|-0--------0--0--0--------0--5--0--3-|  
D|-0--------------------------5--0--3-|  
A|------------------------------------|  
E|------------------------------------|  
  
E|------------12---------------------------|  
B|----------------12-----------------------|  
G|-0--11/-12----------12--12⁄---0-----0--3-|  
D|-0--11/-12--------------12⁄---0/-3--0--3-|  
A|-----------------------------------------|  
E|-----------------------------------------|  
  
E|-0-------------------------------------|  
B|-0-----------------12~---12~-12~---12~-|  
G|-0--11⁄---5/---12--12~---12~-12~---12~-|  
D|-0--11⁄---5/---12----------------------|  
A|---------------------------------------|  
E|---------------------------------------|  
  
E|-----------------------------------------|  
B|-12~---12~-12~---12~-12~---12~-12~---12~-|  
G|-12~---12~-12~---12~-12~---12~-------12~-|  
D|-12~---12~-12~---12~-12~---12~-------12~-|  
A|-12~---12~-12~---12~-12~---12~-------12~-|  
E|-----------------------------------------|  
  
E|-----------------------------------------|  
B|-------------------------------12~-------|  
G|-12~---12~-12~---12~-12~---12~-12~---12~-|  
D|-12~---12~-12~---12~-12~---12~-------12~-|  
A|-12~---12~-12~---12~-12~---12~-------12~-|  
E|-----------------------------------------|  
  
E|-----------------------------12~-------------|  
B|-------------------------12~-12~-12~---------|  
G|-12~---12~-12~---12~-12~-------------12~-----|  
D|-12~---12~-12~---12~-12~-----------------12~-|  
A|-12~---12~-12~---12~-12~---------------------|  
E|---------------------------------------------|  
  
E|--------------------------------------|--0----------------------------|  
B|-12~---12~-12~---12~-12⁄-----5⁄---3---|--0----------------0--5--0--3⁄-|  
G|-12~---12~-12~---12~-12⁄-----5⁄---3-0-|--0----------------0--5--0--3⁄-|  
D|-12~---12~-12~---12~-12⁄-----5⁄-------|--0----------------0--5--0--3⁄-|  
A|--------------------------------------|-------------------------------|  
E|--------------------------------------|-------------------------------|  
  
E|-0----------------------------|--0------------12------------------|  
B|-0----------------0--5--0--3⁄-|--0----------------0------5--0--3⁄-|  
G|-0----------------0--5--0--3⁄-|--0--------12------0------5--0--3⁄-|  
D|-0----------------0--5--0--3⁄-|--0--------12------0------5--0--3⁄-|  
A|------------------------------|-----------------------------------|  
E|------------------------------|-----------------------------------|  
  
E|-------3--3--3--3--5----------------|  
B|-0/-3-----3--3--3-----0-----5--0--3-|  
G|-0--------0--0--0--------0--5--0--3-|  
D|-0--------------------------5--0--3-|  
A|------------------------------------|  
E|------------------------------------|  
  
E|------------12---------------------------|  
B|----------------12-----------------------|  
G|-0--11/-12----------12--12⁄---0-----0--3-|  
D|-0--11/-12--------------12⁄---0/-3--0--3-|  
A|-----------------------------------------|  
E|-----------------------------------------|  
  
E|-0-------------------------------------|  
B|-0-----------------12~---12~-12~---12~-|  
G|-0--11⁄---5/---12--12~---12~-12~---12~-|  
D|-0--11⁄---5/---12----------------------|  
A|---------------------------------------|  
E|---------------------------------------|  
  
E|-----------------------------------------|--0----------------------------|  
B|-12~---12~-12~---12~-12~---12~-12~---12~-|--0----------------0--5--0--3⁄-|  
G|-12~---12~-12~---12~-12~---12~-------12~-|--0----------------0--5--0--3⁄-|  
D|-12~---12~-12~---12~-12~---12~-------12~-|--0----------------0--5--0--3⁄-|  
A|-12~---12~-12~---12~-12~---12~-------12~-|-------------------------------|  
E|-----------------------------------------|-------------------------------|  
  
E|-0----------------------------|--0------------12------------------|  
B|-0----------------0--5--0--3⁄-|--0----------------0------5--0--3⁄-|  
G|-0----------------0--5--0--3⁄-|--0--------12------0------5--0--3⁄-|  
D|-0----------------0--5--0--3⁄-|--0--------12------0------5--0--3⁄-|  
A|------------------------------|-----------------------------------|  
E|------------------------------|-----------------------------------|  
  
E|-------3--3--3--3--5----------------|  
B|-0/-3-----3--3--3-----0-----5--0--3-|  
G|-0--------0--0--0--------0--5--0--3-|  
D|-0--------------------------5--0--3-|  
A|------------------------------------|  
E|------------------------------------|  
  
E|------------12---------------------------|  
B|----------------12-----------------------|  
G|-0--11/-12----------12--12⁄---0-----0--3-|  
D|-0--11/-12--------------12⁄---0/-3--0--3-|  
A|-----------------------------------------|  
E|-----------------------------------------|  
  
E|-0-------------------------------------|  
B|-0-----------------12~---12~-12~---12~-|  
G|-0--11⁄---5/---12--12~---12~-12~---12~-|  
D|-0--11⁄---5/---12----------------------|  
A|---------------------------------------|  
E|---------------------------------------|  
  
E|-----------------------------------------|  
B|-12~---12~-12~---12~-12~---12~-12~---12~-|  
G|-12~---12~-12~---12~-12~---12~-------12~-|  
D|-12~---12~-12~---12~-12~---12~-------12~-|  
A|-12~---12~-12~---12~-12~---12~-------12~-|  
E|-----------------------------------------|  
  
E|-----------------------------------------|  
B|-------------------------------12~-------|  
G|-12~---12~-12~---12~-12~---12~-12~---12~-|  
D|-12~---12~-12~---12~-12~---12~-------12~-|  
A|-12~---12~-12~---12~-12~---12~-------12~-|  
E|-----------------------------------------|  
  
E|-----------------------------12~-------------|  
B|-------------------------12~-12~-12~---------|  
G|-12~---12~-12~---12~-12~-------------12~-----|  
D|-12~---12~-12~---12~-12~-----------------12~-|  
A|-12~---12~-12~---12~-12~---------------------|  
E|---------------------------------------------|  
  
E|--------------------------------------|--0----------------------------|  
B|-12~---12~-12~---12~-12⁄-----5⁄---3---|--0----------------0--5--0--3⁄-|  
G|-12~---12~-12~---12~-12⁄-----5⁄---3-0-|--0----------------0--5--0--3⁄-|  
D|-12~---12~-12~---12~-12⁄-----5⁄-------|--0----------------0--5--0--3⁄-|  
A|--------------------------------------|-------------------------------|  
E|--------------------------------------|-------------------------------|  
  
E|-0----------------------------|--0------------------------------|  
B|-0----------------0--5--0--3⁄-|--0------------------------------|  
G|-0----------------0--5--0--3⁄-|--0------------------------------|  
D|-0----------------0--5--0--3⁄-|--0----0--3----3--2----2--1----1-|  
A|------------------------------|---------------------------------|  
E|------------------------------|---------------------------------|  
  
E|------1--2----3--------------|--3-|  
B|------1--2----3--------------|--3-|  
G|--------------0--------------|--3-|  
D|-0---------------------------|----|  
A|-----------------------------|----|  
E|-----------------------------|----|
 
 

Видео