ZZ Top - Rough Boy, аккорды

Прокрутка
Тональность
Шрифт
100
Intro / verses / second part of guitar solo
G|-----------------------------------------------------------------|
D|-----------------------------------------------------------------|
A|---------------------------------------------------------------4-|
E|-5-5-5-5-5-5-5-5-5-5-5-5-5-5-5-4-2-2-2-2-2-2-2-2-2-2-2-2-2-2-2---|

G|-----------------------------------------------------------------|
D|-----------------------------------------------------------------|
A|-5-5-5-5-5-5-5-5-5-5-5-5-5-5-5-6-7-7-7-7-7-7-7-6-7-7-7-7-7-7-7-7-|
E|-----------------------------------------------------------------|

Chorus
G|-----------------------------------------------------------------|
D|-----------------------------------------------------------------|
A|-----------------------------------------------------------------|
E|-5-5-5-5-5-5-5-5-5-5-5-5-5-0-5-4-2-2-2-2-2-2-2-2-2-2-2-2-2-0-2-4-|

First part of guitar solo
G|-----------------------------------------------------------------|
D|-----------------------------------------------------------------|
A|-4-4-4-4-4-4-4-4-4-4-4-4-4-4-4-4---------------------------------|
E|---------------------------------2-2-2-2-2-2-2-2-2-2-2-2-2-2-2-2-|

G|-----------------------------------------------------------------|
D|-----------------------------------------------------------------|
A|-2-2-2-2-2-2-2-2-2-2-2-2-2-2-2-2-7-7-7-7-7-7-7-7-7-7-7-7-7-7-7-7-|
E|-----------------------------------------------------------------|
 
 

Видео