Помогитте, пожалуйста, подобрать соло к "Афганскому синдрому"

В исполнении Гражданской обороны
Профиль ArtyomKopan
@ArtyomKopan
  • Вопрос задан
  • 674 просмотра
  • 1
Все комментарии (5)
Подписаться
marran27 июля в 20:10:28
  новый
Рейтинг комментария
-1
вроде так:

2|----15--------13-----15--13---------
3|--------------------------------------14--12-------15----------14

2|--12-------14---12----------------------------
3|---------------------------14--12------15--------16

2|--15-------------13-----15---13-----------
3|-----------------------------------------14--12-----15

3|--15----14-----12--------------12-----14-----12
4|--------------------------------------------------------------14---12-------------15------------16
ArtyomKopanавтор27 июля в 20:38:48
  новый
Рейтинг комментария
0
Спасибо, товарищ!
Профиль Arman_Kryt
Arman_Kryt28 июля в 19:51:27
  новый
Рейтинг комментария
+1
Я тоже много страдал пытаясь найти табы, и табы сверху не правильные
Я подобрал нормальные с такой же тональностью как в песне

1)-10---10-12-10--------8----6-5-3---3-5-3---------------
2)--------------------10-6-------------------------3----6----10
3)------------------------------------------------------3----------
ArtyomKopanавтор29 июля в 13:28:22
  новый
Рейтинг комментария
0
Спасибо!!

Только зарегистрированные пользователи могут оставлять комментарии. Войдите, пожалуйста.