Запрещают песни Цоя, Агата Кристи, Наутилус Помпилиус, Зиверт
Отвечаем в отдельной теме

AC/DC - For Those About To Rock (btab), аккорды

Прокрутка
Тональность
Шрифт
100
Intro: x4
G------------|-------------------------|
D------------|-------------------------|
A------------|-2-0---------------------|
E---3-2-0----|----------------3-2-0----|
 
All VersesЭ
G---------------------------------------|
D---------------------------------------|
A---2-2-2-2---0-0-0-0-------------------|
E-----------------------0^0-0-0-0---3-0-|

Chorus:
G-------------------|
D-------------------|
A---2-0-------------|
E-------------3-2-0-|

Guitar Solo: 7x 3x
G---|-------------------|-----------------|-----------------------------------|
D---|-------------------|-5-5-5-5---------|-7-7-7-7-7-7-7-7-------------------|
A---|-------------------|---------5-5-5-5-|-----------------5-5-5-5-----------|
E---|--5-5-5-5-5-5-5-5--|-----------------|--------------------------5-5-5-5--|

End Guitar Solo:
G------------------------------|
D---7-7-7-7-7-7-7-7------------|
A----------------------------5-|
E---------------------5-3--3---|

For Those/Fire 3x
G---|------------|-----------|----|
D---|------------|-----------|----|
A---|-2----------|-----5-----|--2-|
E---|------------|-3-3---5---|----|

Outro/Slow:
G----------------------------|
D----------------------------|
A----------------------------|
E---3-3-3-3-3-3--5-5-5-5-5-5-|

Outro/Fast:
G---|--------------------------------------------------------------------|
D---|--------------------------------------------------------------------|
A---|-2-2-2-2-2-2-2-2-2-2-2-2-2-2-2-2------------------------------------|
E---|----------------------------------3-3-3-3-3-3-3-3--5-5-5-5-5-5-5-5--|

We Salute You: 2x
G---|----------------------|---------|
D---|----------------------|---------|
A---|-----5----------------|-----5---|
E---|--3-3---5--5-5-5-5----|-3-3---5-|

End Of Song Fire:
G-----|---|---|---|---|--------|---|
D-----|---|---|---|---|--------|---|
A-----|---|---|---|---|--------|-2-|
E---7-|-5-|-3-|-2-|-0-|--------|---|
 
 

Видео