Запрещают песни Цоя, Агата Кристи, Наутилус Помпилиус, Зиверт
Отвечаем в отдельной теме

AC/DC - Back In Black, аккорды

Прокрутка
Тональность
Шрифт
100
e|----------------------------------------------------------------|
B|----------------------------------------------------------------|
G|----------------------------------------------------------------|
D|----------------------------------------------------------------|
A|----------------------------------------------------------------|
E|-12-------------------------------------------------------------|

Main Riff:
E|------------------|3p0-----------|------------------|-----------------|
B|-----3-3-3--------|----3p0-------|-----3-3-3--------|-----------------|
G|-----2-2-2--2-2-2-|--------2^-2p0|-----2-2-2--2-2-2-|-----------------|
D|--2--0-0-0--2-2-2-|--------------|--2--0-0-0--2-2-2-|-----------------|
A|--2---------0-0-0-|--------------|--2---------0-0-0-|2---2-0-2-1-2-2--|
E|--0---------------|--------------|--0---------------|--4--------------|

Chorus:
e|--------------------------------------------------------|
B|--------------------------------------------------------|
G|-2-------4----2----4--------2-------4----2----4---------|
D|-2-------4----2----4--------2-------4----2----4---------|
A|-0--2----2----0----2--------0--2----2----0----2---------|
E|----0--------------------------0------------------------|

e|--------------------------------------------------------|
B|-3--3-----------------------3--3------------------------|
G|-0--2----2---------2--------0--2----2---------2---------|
D|-0--0----2---------2--------0--0----2---------2---------|
A|---------0---------0----------------0---------0---------|
E|-3------------3-------------3------------3--------------|


e|--------------------------------------------------------|
B|--------------------------------------------------------|
G|-2-------4----2----4--------2-------4----2----4---------|
D|-2-------4----2----4--------2-------4----2----4---------|
A|-0--2----2----0----2--------0--2----2----0----2---------|
E|----0--------------------------0------------------------|

e|-3----3--3--3--------3--3----3--3--3--3--3--3--3----2----2--2-------|
B|-3----3--3--3--------3--3----3--3--3--3--3--3--3----3----3--3-------|
G|-0----0--0--0--------0--0----0--0--0--0--0--0--0----2----2--2-------|
D|-0----0--0--0--------0--0----0--0--0--0--0--0--0----0----0--0-------|
A|--------------------------------------------------------------------|
E|-3----3--3--3--------3--3----3--3--3--3--3--3--3--------------------|

Solo 1:
e|---------------------------------------------------------------------|
B|---------------------------------------------------------------------|
G|-------------------------0-2h3p0-2---0-------------------------------|
D|-----------------------------------2---------------------------------|
A|---7-7---5-5-5----4-4-4----------------------------------------------|
E|-0-----0--------0----------------------------------------------------|

e|---------------------------------------------------------------------|
B|------------------------------------------5-8/10---8^----------------|
G|--------------------------7-7-7-7-7-7-7^---------9-------------------|
D|---------------------------------------------------------------------|
A|---7--7---5-5-5---4-4-4----------------------------------------------|
E|-0------0--------0---------------------------------------------------|

e|---------------------------------------------------------------------|
B|-8-10h11p10-8-10-8---------------------------------------------------|
G|--------------------9-7-9^-----12-12-12^-----------12-14^-12-14^-----|
D|------------------------------------------14-------------------------|
A|---------------------------------------------------------------------|
E|---------------------------------------------------------------------|

e|-------------------------------------|
B|-15-15-15^-15-12---------------------|
G|-----------------14-12----12^--------|
D|-----------------------14------------|
A|-------------------------------------|
E|-------------------------------------|

e|----12^-12^-12^-12^-12^-12^-12^-12^-12^-12^-12^-12^------------------|
B|-12---------------------------------15-12----12----------------------|
G|------------------------------------------14----12—14^-12-14^--------|
D|---------------------------------------------------------------------|
A|---------------------------------------------------------------------|
E|---------------------------------------------------------------------|

e|-12------------------------------------------------------------------|
B|----15-12-----12-----------------------------------------------------|
G|----------14------12-14^-12-14^--------------------------------------|
D|---------------------------------------------------------------------|
A|---------------------------------------------------------------------|
E|---------------------------------------------------------------------|

e|-----------------------12--------------------------------------------|
B|---------------12-15^-----15-12----12--------------------------------|
G|-14^-12-14^-12------------------14-----12----------------------------|
D|-------------------------------------------14------------------------|
A|---------------------------------------------------------------------|
E|---------------------------------------------------------------------|

e|----0-----------0--0------------0----0--0----------------12---------|
B|-0-----3--5----/5--3----3-------2p0--2--2-------------12----15^(17)-|
G|----------4----------------------------------/14^(16)---------------|
D|--------------------------------------------------------------------|
A|--------------------------------------------------------------------|
E|--------------------------------------------------------------------|

e|-0-------------0-------------0--------0-----------------------------|
B|-5--3--3--5----5--0h2--3-----2--0--0--2-----14^(15)^(14)-12-14^(15)-|
G|--------------------------------------------14^(15)^(14)-12-14^(15)-|
D|--------------------------------------------------------------------|
A|--------------------------------------------------------------------|
E|--------------------------------------------------------------------|

Solo 2:
e|-----------------------------------|
B|-----------------------------------|
G|-----------------------------------|
D|-----------------------------------|
A|----54-2-4-------------------------|
E|-0-----------3-7-5---7-6---7-7-----|  x4

e|------------------------------|
B|------------------------------|
G|------------------------------|
D|---54-2-4---------------------|
A|-0----------3-7-5---76---7-7--|
E|------------------------------|   x2

e|-----------------------------------|
B|-----------------------------------|
G|-----------------------------------|
D|-----------------------------------|
A|----54-2-4-------------------------|
E|-0-----------3-7-5---7-6---7-7-----|  x2

Outro:
e|----------------------|
B|----3-3-3-------------|
G|----2-2-2—-2-2-2------|
D|-2—-0-0-0-—2-2-2—-2*--|
A|-2---------0-0-0—-2---|
E|-0----------------0---|

e|---------------------------3p0----------------|
B|-------------------------------3p0------------|
G|-----------------------------------2^p0-------|
D|-----------------------------------2^p0—-2*-2-|
A|-----------------------------------------2—-2-|
E|-0-0-0-0-0-0-0-0-0-0-0-0-----------------0—-0-|
     Tremolo picking

Order:
Main Riff
Chorus
Main Riff
Chorus
Solo 1
Chorus
Solo 2
Chorus
Outro

Комментарий автора:

Key:
^ -------| Bend
* -------| Let Ring
/ -------| Slide Up
 -------| Slide Down
h -------| Hammer on
p -------| Pull off
 
 

Видео