Запрещают песни Цоя, Агата Кристи, Наутилус Помпилиус, Зиверт
Отвечаем в отдельной теме

AC/DC - Girls Got Rhythm, аккорды

Прокрутка
Тональность
Шрифт
100
Pattern А:
e|---------------------|-----------------------------------------------------|
B|--7--5---------------|-----------------------------------------------------|
G|--7--5---------------|---repeat-3-times----then-go-to-pattern-b------------|
D|--7--5------77-10-7--|-----------------------------------------------------|
A|--------7-9----------|-----------------------------------------------------|
E|---------------------|-----------------------------------------------------|

Pattern В:
e|---------------------------------------------------------------------------|
B|--7--5---------------------------------------------------------------------|
G|--7--5------77---7---------------------------------------------------------|
D|--7--5--7-9----9-----------------------------------------------------------|
A|---------------------------------------------------------------------------|
E|---------------------------------------------------------------------------|
 
 

Видео