Запрещают песни Цоя, Агата Кристи, Наутилус Помпилиус, Зиверт
Отвечаем в отдельной теме

AC/DC - Let Me Put My Love Into You, аккорды

Прокрутка
Тональность
Шрифт
100
Intro
E|---------------------|---------------------|---------------------|
B|---------------------|---------------------|---------------------|
G|---------------------|---------------------|---------------------|
D|------------5--4--5--|------------5--4--5--|------------5--4--5--|
A|------------7--5--7--|------------7--5--7--|------------7--5--7--|
E|---------------------|---------------------|---------------------|

|--------------------|---------------------|---------------------|
|--------------------|---------------------|---------------------|
|-----------------2--|---------------------|---------------------|
|--------4--------2--|------------5--4--5--|------------5--4--5--|
|--------5--------0--|------------7--5--7--|------------7--5--7--|
|--------------------|---------------------|---------------------|

|---------------------|--------------------|---------------------|
|---------------------|--------------------|---------------------|
|---------------------|-----------------2--|---------------------|
|------------5--4--5--|--------4--------2--|------------5--4--5--|
|------------7--5--7--|--------5--------0--|------------7--5--7--|
|---------------------|--------------------|---------------------|

|----------------------|----------------------|----------------------|
|----------------------|----------------------|----------------------|
|----------------------|----------------------|-------------------2--|
|-------------5--4--5--|-------------5--4--5--|---------4---------2--|
|-------------7--5--7--|-------------7--5--7--|---------5---------0--|
|------0---------------|------0---------------|------0---------0-----|

|---------------------|----------------------|----------------------|
|------------8--7--8~-|-------------8--7--8~-|-------------8--7--8~-|
|------------9--7--9~-|-------------9--7--9~-|-------------9--7--9~-|
|---------------------|----------------------|----------------------|
|---------------------|----------------------|----------------------|
|---------------------|------0---------------|------0---------------|
 
 

Видео