Запрещают песни Цоя, Агата Кристи, Наутилус Помпилиус, Зиверт
Отвечаем в отдельной теме

AC/DC - Can't Stand Still, аккорды

Прокрутка
Тональность
Шрифт
100
Riff A:
E--5-5--4-4--2-2--|
B--0-0--0-0--0-0--|
G-----------------|
D-----------------|
A-----------------|
E-----------------|

Riff B:
E--7-7-7-7--10-10-10-10--|
B--0-0-0-0--0--0--0--0---|
G------------------------|
D------------------------|
A------------------------|
E------------------------|

Riff C:
E--7-7--10-10--12-12--5-5--7-7--10-10--7-7---|
B--0-0--0--0---0--0---0-0--0-0--0--0---0-0---|
G--------------------------------------------|
D--------------------------------------------|
A--------------------------------------------|
E--------------------------------------------|

Intro
Riff А (4x)
Riff В (2x)
Riff А (2x)
Riff С
Repeat Intro
 
 

Видео