Запрещают песни Цоя, Агата Кристи, Наутилус Помпилиус, Зиверт
Отвечаем в отдельной теме

AC/DC - Come And Get It (2 вариант), аккорды

Прокрутка
Тональность
Шрифт
100
Intro:
e-------------------------------------
B-------------------------------------
G-------------------------------------
D--5---------7----5------------------- 4x
A--3--7-7-------------5-6-7-----------
E-----5-5---------------------5-------

Main Riff:
e---------------------------------------
B---------------------------------------
G---------------------------------------
D--5---------7----5---------------------
A--3--7-7-------------5-6-7-------------
E-----5-5----------------------8--5-----

Chorus:
e-------------------------
B------------------------
G--5-5-4-5-4--7--7------- 2x
D------------------------
A------------------------
E------------------------

e-------------------------
B-------------------------
G---7-7--6--7-6--9-9------
D------------------------- 2x Second time with distortion
A-------------------------
E-------------------------
 
 

Видео