Запрещают песни Цоя, Агата Кристи, Наутилус Помпилиус, Зиверт
Отвечаем в отдельной теме

AC/DC - Beating Around The Bush, аккорды

Прокрутка
Тональность
Шрифт
100
Intro:
E|-----------------------------------------------|
B|-----------------------------------------------|
G|-----------------------------------------------|
D|-----------0---------------------------------0-|
A|-------0-2-------------------------------0-2---|
E|-0-3-4-----------------------------0-3-4-------|

(Rhy. Fig. 1 repeats-4x-at-what-I-consider-insanely-fast )
E|-------------------------------------------------------------------|
B|-------------------------------------------------------------------|
G|-------------------------------------------------------------------|
D|-----------0-----------------2---------------0-----------2---2---2-|
A|-------0-2---2-0-------0-----------------0-2---2-0-----------2-2-2-|
E|-0-3-4-----------3-0-3---3-0-------0-3-4-----------3-0-3-----0-3-0-|

(Rhy. Fig. 2 verses_______________________)
E|-----------------------------------------|
B|--------------3--------------------------|
G|--------------2--2-2---------------------|
D|--------------0--2-2-----------2---2---2-|
A|-----------------0-0-----------2---2-2-2-|
E|---------------------3p0-3p0-0-----0-3-0-|

(Rhy. Fig. 3_chorus?_______)
E|--------------------------------------------------------|
B|---3---------------------------------3-3-3--------------|
G|---2--2-2----------------------------2-2-2----2-2-2-----|
D|---0--2-2-----------2---2---2-2-2----0-0-0----2-2-2---2-|
A|------0-0-----------2---2-2-2-2-2-------------0-0-0---2-|
E|----------3p0-3p0-0-----0-3-0-0-0---------------------0-|

E|-------------------------------------------------------------------|
B|--------------3-3------------------------------------3-3-3-3-3-3-3-|
G|--2-2-2-2-2-2-2-2-------4-4-4-4-4-4------------------2-2-2-2-2-2-2-|
D|--2-2-2-2-2-2-0-0-------4-4-4-4-4-4-2-2--------------0-0-0-0-0-0-0-|
A|--0-0-0-0-0-0-----------2-2-2-2-2-2-2-2----------------------------|
E|------------------------------------0-0----------------------------|
 
 

Видео