Запрещают песни Цоя, Агата Кристи, Наутилус Помпилиус, Зиверт
Отвечаем в отдельной теме

AC/DC - Flick Of The Switch, аккорды

Прокрутка
Тональность
Шрифт
100
Riff 1
E|---------------------------|
B|---------------------------|
G-2---5---7------------------|
D|-2---5---7-----------------|
A|-0---3---5-----------2-3-2-|
E|-------------1-2-3-4-------|

Riff 1А
E|----------- ---------------|
B|----------- ---------------|
G|-2---5---7- ---------------|
D|-2---5---7- ---------------|
A|-0---3---5- ---------2-3-2-|
E|----------- -1-2-3-4-------|

Riff 1В
E|-----------|
B|-----------|
G|-2---5---7-|
D|-2---5---7-|
A|-0---3---5-|
E|-----------|

Riff 2
E|-----2------2------2------2------2-|
B|-----3------3------3------3------3-|
G|-----2------2------2------2------2-|
D|-----0------0------0------0------0-|
A|-0-3----0-3----0-3----0-3----0-3---|
E|-----------------------------------|

Riff 3
E|-----------------------------------------------------3--2-|
B|-----------------------------------------------------3--3-|
G|-----------------------------------------------------0--2-|
D|-----------------------------------------------------0--0-|
A|-3-0-0-0-0-3-0-5--5-5-3-5b6-5-3-0-3-0-0-0-3-0-3-5--5-2----|
E|-----------------------------------------------------3----|

Riff 3А
E|-----------------------------------------------------3--2---2--2-3--2-|
B|-----------------------------------------------------3--3---3--3-3--3-|
G|-----------------------------------------------------0--2---2--2-0--2-|
D|-----------------------------------------------------0--0---0--0-0--0-|
A|-3-0-0-0-0-3-0-5--5-5-3-5b6-5-3-0-3-0-0-0-3-0-3-5--5-2-----------2----|
E|-----------------------------------------------------3-----------3----|

Riff 3В
E|------------------------------------------------|
B|---------------7--------------------------------|
G|---------------7--------------------------------|
D|---------------7--------------------------------|
A|-3-0-0-0-0-3-0-5--5-5-3-5b6-5-3-0-3-0-0-0-3-0-3-|
E|------------------------------------------------|

E|-2--2-3--2---2--2-3--2---2--2-3--2---2--2-3--2-|
B|-3--3-3--3---3--3-3--3---3--3-3--3---3--3-3--3-|
G|-2--2-0--2---2--2-0--2---2--2-0--2---2--2-0--2-|
D|-0--0-0--0---0--0-0--0---0--0-0--0---0--0-0--0-|
A|------2-----------2-----------2-----------2----|
E|------3-----------3-----------3-----------3----|

Riff 3С
E|-------------------------------------------------|
B|---------------7---------------------------------|
G|---------------7---------------------------------|
D|---------------7---------------------------------|
A|-3-0-0-0-0-3-0-5--5-5-3-5b6-5-3-0-3-0-0-0-3-0-3--|
E|-------------------------------------------------|

E|2--2-3--2---2--2-3--2---2--2-3--2---2--2-3--2--- ------------- ---|
B|3--3-3--3---3--3-3--3---3--3-3--3---3--3-3--3--- ------------- ---|
G|2--2-0--2---2--2-0--2---2--2-0--2---2--2-0--2--- -2----5----7- -2-|
D|0--0-0--0---0--0-0--0---0--0-0--0---0--0-0--0--- -2----5----7- -2-|
A|-----2-----------2-----------2-----------2------ -0----3----5- -0-|
E|-----3-----------3-----------3-----------3------ ------------- ---|

Order:
Riff 1 x 1
Riff 1А x 1
Riff 1 x 7
Riff 1В x 1
Riff 2 x 1
Riff 3 x 1
Riff 3А x 1
Riff 1 x 5
Riff 1В x 1
Riff 2 x 1
Riff 3 x 1
Riff 3В x 1
Solo over Riff 1 x 7
Solo over Riff 1А x 1
Solo over Riff 2 x 1
Riff 3 x 3
Riff 3С x 1
 
 

Видео