Запрещают песни Цоя, Агата Кристи, Наутилус Помпилиус, Зиверт
Отвечаем в отдельной теме

AC/DC - Squealer, аккорды

Прокрутка
Тональность
Шрифт
100
Intro: x4
E|--------------------|------------------|
B|--------------------|------------------|
G|--2--------------4--|----------------7-|
D|--3--------------5--|----------------7-|
A|--3--------------5--|----------------5-|
E|--1--------------3--|------------------|

Verse 1:
never been never been
E|-------------------|--|--|--|--|--|--|--|----|
B|-------------------|--|--|--|--|--|--|--|----|
G|--7----------------|--|--|--|--|--|--|--|--4-|
D|--7----------------|--|--|--|--|--|--|--|--4-|
A|--5----------------|--|--|--|--|--|--|--|--2-|
E|-------------------|--|--|--|--|--|--|--|----|

before Verse 2: never liked
E|--|-------------------|--|--|--|----|
B|--|-------------------|--|--|--|----|
G|--|--7----------------|--|--|--|--7-|
D|--|--7----------------|--|--|--|--7-|
A|--|--5----------------|--|--|--|--5-|
E|--|-------------------|--|--|--|----|

excited
E|-------------------|------------------|----|
B|-------------------|------------------|----|
G|--7----------------|------------------|--7-|
D|--7----------------|------------------|--7-|
A|--5----------------|------------------|--5-|
E|-------------------|------------------|----|

always had
E|-------------------|------------------|----|
B|-------------------|------------------|----|
G|--7----------------|------------------|--4-|
D|--7----------------|------------------|--4-|
A|--5----------------|------------------|--2-|
E|-------------------|------------------|----|

fight it
E|-------------------|------------------|----|
B|-------------------|------------------|----|
G|--4----------------|------------------|--7-|
D|--4----------------|------------------|--7-|
A|--2----------------|------------------|--5-|
E|-------------------|------------------|----|

Verse 3: never been
E|-------------------|------------------|-------|
B|-------------------|------------------|-------|
G|--7----------------|------------------|--5--7-|
D|--7----------------|------------------|--5--7-|
A|--5----------------|------------------|--3--5-|
E|-------------------|------------------|-------|

before
E|--------------------|------------------|-------|
B|--------------------|------------------|-------|
G|--5--7--------------|------------------|--5--7-|
D|--5--7--------------|------------------|--5--7-|
A|--3--5--------------|------------------|--3--5-|
E|--------------------|------------------|-------|

I don't think
E|--------------------|------------------|-------|
B|--------------------|------------------|-------|
G|--5--7--------------|------------------|--2--4-|
D|--5--7--------------|------------------|--2--4-|
A|--3--5--------------|------------------|--0--2-|
E|--------------------|------------------|-------|

no more
E|--------------------|------------------|-------|
B|--------------------|------------------|-------|
G|--2--4--------------|------------------|--5--7-|
D|--2--4--------------|------------------|--5--7-|
A|--0--2--------------|------------------|--3--5-|
E|--------------------|------------------|-------|

squealer when I held her hand
E|--------------------|------------------|-------|
B|--------------------|------------------|-------|
G|--5--7--------------|------------------|--5--7-|
D|--5--7--------------|------------------|--5--7-|
A|--3--5--------------|------------------|--3--5-|
E|--------------------|------------------|-------|

squealer I made her understand squealer when I kissed her lips
E|--------------------|------------------|-------|
B|--------------------|------------------|-------|
G|--5--7--------------|------------------|--5--7-|
D|--5--7--------------|------------------|--5--7-|
A|--3--5--------------|------------------|--3--5-|
E|--------------------|------------------|-------|

squealer sucked her fingertips squealer she was startin...
E|--------------------|------------------|-------|
B|--------------------|------------------|-------|
G|--5--7--------------|------------------|--2--4-|
D|--5--7--------------|------------------|--2--4-|
A|--3--5--------------|------------------|--0--2-|
E|--------------------|------------------|-------|

squealer made it hard to stop squealer got too much
E|--------------------|------------------|-------|
B|--------------------|------------------|-------|
G|--2--4--------------|------------------|--5--7-|
D|--2--4--------------|------------------|--5--7-|
A|--0--2--------------|------------------|--3--5-|
E|--------------------|------------------|-------|

squealer I think...
E|-------|
B|-------|
G|--5--7-|
D|--5--7-|
A|--3--5-|
E|-------|

Solo part:
E|-----------------------|----------------------|-----------------------|
B|-----------------------|----------------------|-----------------------|
G|--2--4------4----2--4--|----2--4----4----4----|--2--4--4----4----2--4-|
D|--2--4------4----2--4--|----2--4----4----4----|--2--4--4----4----2--4-|
A|--0--2------2----0--2--|----0--2----2----2----|--0--2--2----2----0--2-|
E|-----------------------|----------------------|-----------------------|

E|----------------------|------------------------|-------------------|
B|----------------------|------------------------|-------------------|
G|----2--4----4----4----|--5--7--7----7----5--7--|----5--7----7----7-|
D|----2--4----4----4----|--5--7--7----7----5--7--|----5--7----7----7-|
A|----0--2----2----2----|--3--5--5----5----3--5--|----3--5----5----5-|
E|----------------------|------------------------|-------------------|

E|------------------------|-------------------|
B|------------------------|-------------------|
G|--5--7--7----7----5--7--|----5--7----7----7-|
D|--5--7--7----7----5--7--|----5--7----7----7-|
A|--3--5--5----5----3--5--|----3--5----5----5-|
E|------------------------|-------------------|

end pattern: go on till end:
E|--------------------|------------------|-------|
B|--------------------|------------------|-------|
G|--2--------------4--|------------------|--5--7-|
D|--3--------------5--|------------------|--5--7-|
A|--3--------------5--|------------------|--3--5-|
E|--1--------------3--|------------------|-------|
 
 

Видео