Запрещают песни Цоя, Агата Кристи, Наутилус Помпилиус, Зиверт
Отвечаем в отдельной теме

AC/DC - Live Wire, аккорды

Прокрутка
Тональность
Шрифт
100
Intro: bass and guitar 1 (Malcolm) Taps on hi-hat only 
Rythm figure 1                                  end of Rythm figure 1
||----------------|----------------|----------------|----------------||-|
||-*-T------------|----------------|----------------|--------------*-||-|
||-*-A------------|----------------|----------------|--------------*-||-|
||---B-2----------|----------------|--4-------------|----------------||-|
||-----0----------|--2-------------|--2-------------|----------------||-|
||----------------|--0-------------|----------------|----------------||-|

Guitar 2 (Angus)joins in
Rythm Figure 2                                   end of rythm figure 2
||----------------|----------------|----------------|----------------||-|
||-*-T------------|----------------|----------------|--------------*-||-|
||-*-A------------|----------------|----------------|--------------*-||-|
||---B-2---4------|----------------|--2---4---------|----------------||-|
||-----0---2------|----------------|--0---2---------|----------------||-|
||----------------|----------------|----------------|----------------||-|

Rythm Figure 3                                   end of rythm figure 3
||----------------|----------------|----------------|----------------||-|
||-*-T------------|----------------|----------------|--------------*-||-|
||-*-A-2-----4--4-|----------------|-----2-----4--4-|--------------*-||-|
||---B-2--2--4--4-|----------------|-----2--2--4--4-|----------------||-|
||-----0--2--0--2-|----------------|-----0--2--0--2-|----------------||-|
||--------0-------|----------------|--------0-------|----------------||-|

Rythm Figure 4                                    end of rythm figure 4
||----------------|----------------|----------------|----------------||-|
||-*-T------------|----------------|----------------|--------------*-||-|
||-*-A-2-----4--4-|-----------4--4-|-----2-----4--4-|---------4--4-*-||-|
||---B-2--2--4--4-|-----------4--4-|-----2--2--4--4-|---------4--4---||-|
||-----0--2--0--2-|-----------0--2-|-----0--2--0--2-|---------2--0---||-|
||--------0-------|----------------|--------0-------|----------------||-|
 
 

Видео