Запрещают песни Цоя, Агата Кристи, Наутилус Помпилиус, Зиверт
Отвечаем в отдельной теме

AC/DC - Overdose, аккорды

Прокрутка
Тональность
Шрифт
100
Intro: 
e|-----------2----------0-----0----|
b|---------2----------2-------2----|
g|-----2-4--------2-4--------------|  
D|---------------------------------|
A|---------------------------------|
E|---------------------------------|

Verse:
e|-----------------------------------|
b|-----------------------------------|
g|------------7----------------------|  
D|------9--x--7--7--x----------------|
A|------9--x--5--7--x----------------|
E|------7--x-----5--x----------------|
 
 

Видео