Запрещают песни Цоя, Агата Кристи, Наутилус Помпилиус, Зиверт
Отвечаем в отдельной теме

AC/DC - Highway To Hell, аккорды

Прокрутка
Тональность
Шрифт
100
E|---------------------|---------------------|--------------------|
B|------------2--2--2--|------------3--3--3--|------------3--3--3-|
G|------------2--2--2--|------------2--2--0--|------------2--2--0-|
D|------------2--2--2--|------------0--0--0--|------------0--0--0-|
A|------------0--0--0--|---------------------|--------------------|
E|---------------------|------------2--2--3--|------------2--2--3-|
 
E|-----------------------|---------------------|
B|----3--3--3----3----2--|--2----------2--2--2-|
G|----2--2--0----2----2--|--2----------2--2--2-|
D|----0--0--0----0----2--|--2----------2--2--2-|
A|--------------------0--|--0----------0--0--0-|
E|----2--2--3----2-------|---------------------|

E|--------------------------|--------------------------|
B|--------------------------|--------------------------|
G|--------------------------|--------------------------|
D|--2--2--2--2--2--2--2--2--|--2--2--2--2--2--2--2--2--|
A|--2--2--2--2--2--2--2--2--|--2--2--2--2--2--2--2--2--|
E|--0--0--0--0--0--0--0--0--|--0--0--0--0--0--0--0--0--|

E|-------------------2--|----2--2----3----2-|
B|--2--------2----2--3--|----3--3----3----3-|
G|--2--------2----2--2--|----2--2----0----2-|
D|--2--------2----2--0--|----0--0----0----0-|
A|--0--------0----0-----|-------------------|
E|----------------------|------------3------|

E|-------------------2--|----2--2----3----2----|-------------------2-|
B|--2--------2----2--3--|----3--3----3----3----|--2--------2----2--3-|
G|--2--------2----2--2--|----2--2----0----2----|--2--------2----2--2-|
D|--2--------2----2--0--|----0--0----0----0----|--2--------2----2--0-|
A|--0--------0----0-----|----------------------|--0--------0----0----|
E|----------------------|------------3---------|---------------------|

E|----2--2----3----2----|--------------------2-|
B|----3--3----3----3----|--2----2----2----2--3-|
G|----2--2----0----2----|--2----2----2----2--2-|
D|----0--0----0----0----|--2----2----2----2--0-|
A|----------------------|--0----0----0----0----|
E|------------3---------|----------------------|

E|--2------3----3--2-|
B|--3------3----3--3-|
G|--2------2----2--2-|
D|--0------0----0--0-|
A|--0------0----0--0-|
E|-------------------|

E|--2------3----3--2----|----3--3--3--2----2-|
B|--3------3----3--3----|----3--3--3--3----3-|
G|--2------2----2--2----|----2--2--2--2----2-|
D|--0------0----0--0----|----0--0--0--0----0-|
A|--0------0----0--0----|----0--0--0--0----0-|
E|----------------------|--------------------|
 
 

Видео