Allman Brothers - Pony Boy, аккорды

Прокрутка
Тональность
Шрифт
100
Intro:              Harm.
[E ---------~---------~----------------------12-
B ----0---/5- 53---/5--53-~---------------------
G#------0-------- 3-------- 3-------------------
E -----------------------------32-0-------------
B -----------------------------------32-0-------
E -----------------------------------------0----

---------------~----------------------
--0---0---53--/5-53-~-----------------
----0---0-----3-------3---------------
------------------------53-0----------
------------------------------32-0----
------------------------------------3-

--------------------------------------------
--------------------------------------------
-------------------~------------------------
-/3p0--/3p0--/3p0--/5------/3p0--/3/4--/3/4-
--------------------------------------------
-/3p0--/3p0--/3p0--/5------/3p0--/3/4--/3/4-

---------------------------------
---------------------------------
---------~---------31------------
-/3/4////5---53p0-----1/3----0---
--------------------------3/4----
-/3/4////5---53p0--------------0-]
                  Harmonic
[-----------------------------------12-
-----------3------3-----2-----1--------
0-1-2--3------3-----2-----1----0-------
0-1-2----3------3-----2-----1----0-----
---------------------------------------
0-1-2--3---3--3-----2-----1----0-------]
shuffle rythym       ~
[----------------------------------12---
----------------------------------------]
[--~------------------~-----------------] repeat
[-/3-0---0-- ~-0--0--/3-0--0-- ~-0------] once
[----0------/1-0--------0-----/1-0------] then:>
[-/3-0-0--0-/3-0-0-0-/3-0-0-0-/3-0----0-]

[--------~----~---------
--------/5--/3-0--------]
[------------~-----~----]repeat twice more then:>
[0-3-4------------/3-0--
--------/5--/3-0--------
0-3-4------------/3-0---]

         Harmonic
[--------------12-----------
----------------------------
--------~-------------------
-3--5-6-7-0-----------------
----------------------------
-3--5-6-7-0-----------------]
Verse 1
Don't worry for me     well I'm allright
[~-----~--------~---~-------~--~------------
/5----5--------/5--5------/5--5-------------
/5----5--0-----/5--5---0--/5--5--0----3-2-0-
/5--- 5--0-----/5--5---0--/5--5--0----3-2-0-
--------------------------------------------
/5----5-0--0---/5--5-0--0--5--5-0-0---3-2-0-]
Lord knows I'm happy   havin' a good time

[-~------~------------------~---~---------
/5------3---0--------------5---3--0-------
---------------~--------------------------
---------------/3-0------------------/3-0-
/5------3---0-------0------5---3--0-------
---------------/3-0--0---------------/3-0-]

pocket full of money gonna boogie all night
[~-----~--------~---~-------~--~------------
/5----5--------/5--5------/5--5-------------
/5----5--0-----/5--5---0--/5--5--0----3-2-0-
/5--- 5--0-----/5--5---0--/5--5--0----3-2-0-
--------------------------------------------
/5----5-0--0---/5--5-0--0--5--5-0-0---3-2-0-]

 ain't no--bo--dy     tell me that's a crime
[-~------~------------------~---~---------
/5------3---0--------------5---3--0-------
---------------~--------------------------
---------------/3-0------------------/3-0-
/5------3---0-------0------5---3--0-------
---------------/3-0--0---------------/3-0-]

Chorus:
     mornin comes and it's time to go
[----------~--------------------~---------
--------~-75-----------------10--~--------
-------/7----5/7-~-------------------5//7-
-3-5-6-/7--------7----------------------7-
------------------------------10//--------
-3-5-6-/7--------7----------------------7-]

pony boy carry me home
[-~-~--~----------------------------
/5-5--5-0-/3--0---------------------
/5-5--5-0-/3--0---------------------
----------------/3-0----0-/3-0----0-
/5-5--5-0-/3--0-/3-0--0---------0---
----------------/3-0-0-0--/3-0-0-0--]

pony boy carry me home
[-~-~--~----------------------------
/5-5--5-0-/3--0---------------------
/5-5--5-0-/3--0---------------------
----------------/3-0----0-/3-0----0-
/5-5--5-0-/3--0-/3-0--0---------0---
----------------/3-0-0-0--/3-0-0-0--]

         allright momma     ~
[----------------------------------12--
---------------------------------------
--~------------------~-----------------
-/3-0---0-- ~-0--0--/3-0--0-- ~-0------
----0------/1-0--------0-----/1-0------
-/3-0-0--0-/3-0-0-0-/3-0-0-0-/3-0----0-]
 let me see ya do that thing
[--------------------------------------
---------------------------------------
--~------------------~-----------------
-/3-0---0-- ~-0--0--/3-0--0-- ~-0------
----0------/1-0--------0-----/1-0------
-/3-0-0--0-/3-0-0-0-/3-0-0-0-/3-0----0-]
     yeah
[--------~----~--------
--------/5--/3-0-------]
[------------~-----~---]repeat twice more then:>
[0-3-4------------/3-0-
--------/5--/3-0-------
0-3-4------------/3-0--]
        Harmonic
[--------------12-----
----------------------
--------~-------------
-3--5-6-7-0-----------
----------------------
-3--5-6-7-0-----------]

Verse 2:
Band is jumpin' and so am I
I'm just groovin' can't stop movin'
Barman's got that old, evil eye
Well he's just waitin' cause we're celebratin'

Verse 3:
Look out the door beside that tree
That's my pony lookin' after me
Front feet doin' the shuffle back feet too
Love them good old Georgia Blues

Ending:
[---------------------------~--
--5-4-3-2--~----0----0--2--3---
--5-4-3-2--3-0--0----0--2--3---
-----------3-0----0------------
--5-4-3-2-------0-0--0--2--3---
-----------3-0----0------------]

Комментарий автора:

Symbols:
~ = slide (shake) tremolo
/ = slide up to note
 = slide down to note
p = pulloff
 
 

Видео