Allman Brothers - Gamblers Roll, аккорды

Прокрутка
Тональность
Шрифт
100
Intro:
----------------------------------------------------------------------------7-
--------------------------------------------------------------------------7---
---------------------------------------------------------------------9-b------
------------------------------------------------------------------------------
------------------------------------------------------------------------------
------------------------------------------------------------------------------

------------------------------------------------------------------------------
---10b-(-1)--10---------------------------------------------------------------
----------------(11)-9--7------7-~--------9-9--9---9-9------------------------
----------------------------9--------------9-9--11--9-9-----------------------
-------------------------------------------7-7--7---7-7-----------------------
------------------------------------------------------------------------------

   Bm    A     E       E       E
----------------------------------------------------------------7-7-7-7-d--5--
---------15--17b-(17-b)-(17-b)etc.-etc.-17r---17p--15----15-----7-7-7-7-d--5--
-----/16-----------------------------------------------16-------7-7-7-7-d--6--
----------------------------------------------------------------9-9-9-9-d--7--
----------------------------------------------------------------9-9-9-9-d--7--
----------------------------------------------------------------7-7-7-7-d--5--

FIRST VERSE:
     G                      A    Bm     A
 The dealer sits           alone in the dark
------------------7--------(5-)----------------------------7----------5-------
------------------7-------5--------------------------------7---------5--------
------------------7------6---------------------------------7-------6----------
-------------9----9-----7-----------------------------9----9-----7------------
-------------9----9----7------------------------------9----9----7-------------
-------------7----7---5-------------------5---6-------7----7---5--------------

         Bm    A              Bm     A
 cigarettes giant          on his very last card
-------------------7-------5--------------------------------------------------
-------------------7------5-----------------------------------7p7-7-----------
-------------------7-----6------------------------------------7p9-7-----------
--------------9----9----7-------------------------------------------9~--------
--------------9----9---7------------------------------------------------------
-5---6--------7----7--5-------------------------------------------------------

          Bm   A
 everything he has         what's did come and Go
------------------7----5-------------------------------------9-------12--9----
------------------8----7-------------------------------------10------10--10---
--------------7---7----7---------------------------------9---9-------9---9----
--------------9---9----7---------------------------------11--11------11--11---
--------------7---7----5---------------------------------9---9-------9---9----
------------------------------------------------------------------------------

         Em7   D               Fm#7
 on a gamblers roll         hmmmmm
-----------------------3-------------------------------------------3----------
-------------------7---3-------------------------------------7-----3----------
-------------------7---4----------7--------------------------7-----4----------
---------------9---9---5------------9~------------------9----9-----5----------
---------------9---9---5-----5-/9-----------------------9----9-----5----------
---------------7---7---3--------------------------------7----7-----3----------

SECOND VERSE:
           Bm   G                Bm     G
 cold wind blows           a young girls world apart
 she better knows, she better knows    on the jack of heart
 king(dom) of freedom       ?lost? her soul
 on a gamblers roll         on a gamblers roll
------------------------------------------------------------------------------
------------------------------------------------------------7-------7---------
------------------------------------------------------------7-------7---------
---------------------------------------------------------9--9-------9---------
---------------------------------------------------------9--9-------9---------
---------------------------------------------------------7--7-------7---------

 REFRAIN:
                   Bm	     Bm
 You know the gambler he rides     rides on a fools train
---------------------------3-3--------------------------2--2--2--2------------
---------------------------3-3--------------------------2--2--2--2------------
---------------------------4-4--------------------------3--3--3--3------------
---------------------------5-5--------------------------4--4--4--4------------
---------------------------5-5--------------------------4--4--4--4------------
---------------------------3-3--------------------------2--2--2--2------------

             G              F
 a train...silver.........          alone
------------------------------------------------------------------------------
-7---5----0------------------------------9---9-9----9-9-----------------------
-7---6----1------------------------------9---9-9----9-9-----------------------
-9---7----2----0-------------------------9---9-11---9-9-----------------------
-9---7----2--2---2--0--------------------7---7-7----7-7-----------------------
-7---5----0-------------------------------------------------------------------

 Bm A   E              E
 but his luck will change           time takes its toll
------------------------------------------------------------------------------
--12--12---12---12------------------------------------------------------------
--12--12---12---12----------------------14-14--14--14-------------------------
--12--12---14---12----------------------14-14--16--14-------------------------
--10--10---10---10----------------------12-12--12--12-------------------------
------------------------------------------------------------------------------

  G              A
                on a gamblers roll
---------------------------3-------------------------------------------3------
---------------------------3-------------------------------------------3------
---------------7--7-7--7---4--------------------------------7-7-7-d----4------
---------------9--9-9--9---5--------------------------------9-9-9-d----5------
---------------9--9-9--9---5--------------------------------9-9-9-d----5------
---------------7--7-7--7---3--------------------------------7-7-7-d----3------

 GUITAR SOLO:
         Bm       G               Bm      G
----7-------------------------------------7--7--7-7---7---7-7--7--------------
------------------------------------------------------------------------------
----9b-r9-p7---7-----------------------------7--9--9b-9---7-9--9-~-~----------
-------------9---9~-~---------------------9-----------------------------------
------------------------------------------------------------------------------
------------------------------------------------------------------------------

         Bm  G              Bm  G
--7-7---7-7---7-7--7-7--10-7----7-----------7-7---7-7---7-7---10-b--10~-------
--------7-7--1010------------10-----------------------------------------------
--9-9---------------------------------------------7-7---9-9-------------------
--------------------------------------------9-9-------------------------------
------------------------------------------------------------------------------
------------------------------------------------------------------------------

         Bm   G             Bm   G
--7---10b--7----7--10-b~--------------------10-12-12b-12-10-12b-15b-12-~------
---7---------10--------------------------/12----------------------------------
------------------------------------------------------------------------------
------------------------------------------------------------------------------
------------------------------------------------------------------------------
------------------------------------------------------------------------------

         Em7   D              Fm7
-------------------10-----14--10-12-~----------10-12----12-b~12-b~12-b~12-b~--
----------------11-------------------------12---------------------------------
-------------11---------------------------------------------------------------
------------------------------------------------------------------------------
------------------------------------------------------------------------------
------------------------------------------------------------------------------

       D5         E5
--------7------7--------------------------------------------------------------
-------7---10b---7------------------------------------------------------------
---9-b-------------10p9p7--7-9--9b-~-----(11-9)-7--7-9----9b---9b-~----------
--------------------------9------------------------9--------------------------
------------------------------------------------------------------------------
------------------------------------------------------------------------------

       Bm  G              Bm  Bm
                (rake)
---------------10----10--12--12-b-12b-------987-------------------------------
---------10-12----12----------------------0----10-97---7----------------------
---9-/11-------------------------------0------------9b---10p9p7h9p7---7--9b---
--------------------------------------------------------------------9---------
------------------------------------------------------------------------------
------------------------------------------------------------------------------

       E               F#
                  etc...
-19----17-----------------------19--------------------------------------------
---------19--17h19p17--17---17------------------------------------------------
---------------------19---19--------------------------------------------------
------------------------------------------------------------------------------
------------------------------------------------------------------------------
------------------------------------------------------------------------------

 Bm A         E             E
-----17--14-------------------------------17--17--etc--17---------------------
-----------17--15h17p-15---15~------------17b-17b-etc.-17b-15-----------------
-------------------------16----------------------------------16-~-------------
------------------------------------------------------------------------------
------------------------------------------------------------------------------
------------------------------------------------------------------------------

     G                A
   etc...                    staccato
---------------------------------------------7------(7-10-12-14-17-19)--------
-------------------------------------------7--7-10-b--------------------------
-----------------------------------------9b-----------------------------------
------------------------------------------------------------------------------
------------------------------------------------------------------------------
------------------------------------------------------------------------------

     Bm		 G                Bm G
------------------------------------------------------------------------------
---------------------------------3--------------------------------------------
-------------7----7----7---7-----4--------------------------------------------
-------------9----9----9---9-----5--------------------------------------------
-------------9----9----9---9-----5--------------------------------------------
-------------7----7----7---7-----3--------------------------------------------

THIRD VERSE:
         Bm Bm Bm Bm G
The dealer knows   it's just about his last game
not even she knows all the sorrow and the pain
as the fourtyfive  deals a fiddle blow
on a gamblers roll on a gamblers roll

REFRAIN:
You know the gambler he rides
rides on a fools train
train..... silver.......alone
all is what will change
time takes it's toll
on a gamblers roll
on a gamblers roll
on a gamblers roll
on a gamblers roll

---------------------------------------------------------------------------5--
---------------------------------5----------------------------------------5---
---------------------------------6------------------7--7--7--7----------7-----
------------------9--9--9--9-----7------------------9--9--9--9--------7-------
------------------9--9--9--9-----7------------------9--9--9--9------5---------
------------------7--7--7--7-----5------------------7--7--7--7----------------
         Bm      A       Bm     Dsus2    
 
 

Видео