Амега - Лететь, аккорды

Прокрутка
Тональность
Шрифт
100
Cm   Gm F(V)         D#(III)
Однажды он сказал: "Твой полёт - всего лишь сон"
 Cm     Gm F(V)        D#(III)
И ты летать не стал - стал таким, как он
Cm   Gm F(V)         D#(III)
И по земле ходить научился как ребенок ты
Cm   Gm F(V)         D#(III)
Но всё не мог забыть той прозрачной высоты
 
Cm
И лететь по белому свету
Gm
Став одним движением ветра
Bb(VI)    F(V)
Лететь, куда-то вдаль
Cm
И не думать, как приземлиться
Gm
А y птиц свободе учиться
Bb(VI)    F(V)
Оставив, всё то, что жаль

Cm   Gm F(V)         D#(III)
Однажды ты привык, и почти не стал мечтать
Cm   Gm F(V)         D#(III)
И только чей-то крик вдруг позвал летать
Cm   Gm F(V)         D#(III)
И поднял ты глаза в высоту, где голоса плывут
Cm   Gm F(V)         D#(III)
Там люди в небесах и тебя с собой зовут

Cm
Полететь по белому свету
Gm
Стать одним движением ветра
Bb(VI)    F(V)
Лететь куда-то вдаль
Cm
И не думать, как приземлиться
Gm
А y птиц свободе учиться
Bb(VI)    F(V)
Оставив всё то, что жаль

Проигрыш:	
E-------------------------------------------
B-------------------------------------------
G---6s7--5--3----------6s7--5--3--5--3~-----
D--------------5~---------------------------
A-------------------------------------------
E-------------------------------------------

E-------------------------------------------
B--------6----------------------------------
G---6s7-----7--5~------5-5h7p5--------------
D------------------------------5------------
A-------------------------------------------
E-------------------------------------------

E-------------------------------------------
B-------------------------------------------
G---6s7--5s-3----------6s7--5s-3-h5--3~-----
D--------------5~---------------------------
A-------------------------------------------
E-------------------------------------------

E-------------------------------------------
B-----6-8-------6-11-8/8/8/-----6-----------
G---7-----5---7-------------------7-5-------
D-------------------------------------8p5~--
A-------------------------------------------
E-------------------------------------------

Комментарий автора:

Легче играть в тональности Am.
Бой - восьмёрка.
 
 

Видео