Benny Tipene - Toulouse, аккорды

Прокрутка
Тональность
Шрифт
100
Intro: Lead Guitar - Tab 
       Rhythm Guitar - Octave Picking/Strumming Chords 
   
F#m     F#m     F#m                                 Dmaj7            A   A/G# 
e|---------------------------------------------------------------------------| 
B|---------------------------5-----5--7--------------------------------------| 
G|----2h4/6---2h4/6---2h4/6-----6--------6--4---------------4--6---6--7--6--4| 
D|---------------------------------------------7-4----4--7-------------------| 
A|---------------------------------------------------------------------------| 
E|---------------------------------------------------------------------------| 
F#m                                     Dmaj7 
e|---------------------------------------------------------------------------| 
B|-----------------------------------------5-----5--7------------------------| 
G|---4h6p4---4------2h4/6---2h4/6---2h4/6-----6--------6--4---------------4--| 
D|---------7---4---------------------------------------------7-4----4--7-----| 
A|---------------------------------------------------------------------------| 
E|---------------------------------------------------------------------------| 

 A            A/G#          F#m 
e|-------------------------------| 
B|-------------------------------| 
G|6---6--7--6--4---4h6p4---4-----| 
D|-----------------------7---4---| 
A|-------------------------------| 
E|-------------------------------| 
  
Verse 1:
                 F#m                                    Dmaj7 
I tried to find, I tried to find laughter, but I made a fool 
of myself 
         A         A/G#           F#m 
I felt a straining pain inside my throat 
                         F#m                             Dmaj7 
But I tried to find, and I tried to find love, but I was afraid 
of myself 
          A               A/G#       F#m 
I was too closed off with nothing to hurt 
  
Chorus:
F#m                              A           A/G# 
What? What? What have you got to lose, lose? Nothing 
F#m                              A           A/G# 
What? What? What have you got to lose, lose? Nothing 
 
F#m                                 D                     A            A/G# 
e|---------------------------------------------------------------------------| 
B|---------------------------5-----5--7--------------------------------------| 
G|----2h4/6---2h4/6---2h4/6-----6--------6--4---------------4--6---6--7--6--4| 
D|---------------------------------------------7-4----4--7-------------------| 
A|---------------------------------------------------------------------------| 
E|---------------------------------------------------------------------------| 

        F#m                
e|-----------------| 
B|-----------------| 
G|---4h6p4---4-----| 
D|---------7---4---| 
A|-----------------| 
E|-----------------|  
 
Verse 2:
                 F#m                              Dmaj7 
I tried to find, I tried to find hope, but no one believed 
in my song 
        A           A/G#       F#m 
I was a stranger to everyone I know 
                     F#m                             Dmaj7 
But I tried to stay, I tried to stay here, but I was torn away 
           A             A/G#             F#m 
I was left stranded with no choice but to run 
 
Chorus:
F#m                              A           A/G# 
What? What? What have you got to lose, lose? Nothing 
F#m                              A           A/G# 
What? What? What have you got to lose, lose? Nothing at all 
F#m                              A           A/G# 
What? What? What have you got to lose, lose? Nothing 
F#m                              A           A/G# 
What? What? What have you got to lose, lose? Nothing 
 
Bridge:
F#m       A                A/G#                D/F# 
You might notice I've been wondering away from myself 
    A                 A/G#                     D/F# 
I'm tortured and only desperate for somebody's help 
 
Chorus:
                                 A           A/G# 
What? What? What have you got to lose, lose? Nothing 
D/F#                             A           A/G# 
What? What? What have you got to lose, lose? Nothing 
D/F#                             A           A/G# 
What? What? What have you got to lose, lose? Nothing 
 
D/F#  A  A/G#  F#m 
 
Ending:
               A                    A/G#             F#m 
Now the storm is over, I feel a little older, feel a little wiser,
I'll stay away 
               A                    A/G#             F#m 
Now the storm is over, I feel a little older, feel a little wiser,
I'll stay away 
          A 
I'll stay away 
 
 

Видео