Beth Gibbons - Mysteries, аккорды

Прокрутка
Тональность
Шрифт
100
Intro:
E-||---------|
B-||---------|
G-||-------3-|
D-||-----5---|
A-||---5-----|
E-||-3-------|

I:
    F            C
God knows how I adore life
         Bm                G#          Bm        F
When the wind turns on the shores lies another day
          C
I cannot ask for more

II:
         Bm        G#
When the time bell blows my heart
    Bm
And I have scored a better day
F           C
Well nobody made this war of mine

III:
        Bm               G#
And the moments that I enjoy
           Bm
A place of love and mystery
F              C
I'll be there anytime

IV:
    Bm
Oh mysteries of love
      G#
Where war is no more
Bm   F        C
I'll be there anytime

Bm G# Bm F C }x2

II:
         Bm        G#
When the time bell blows my heart
    Bm
And I have scored a better day
F           C
Well nobody made this war of mine

III:
        Bm               G#
And the moments that I enjoy
           Bm
A place of love and mystery
F              C
I'll be there anytime

IV:
    Bm
Oh mysteries of love
      G#
Where war is no more
Bm   F        C
I'll be there anytime

Bm G# Bm F C (repeated with small variations)

Outro:
-------3-----1---|-----0-------------|-----------3-----|-------0---------|-1--------|
-----3---3-----3-|---------3---------|---------3-------|-----1-------1---|-1--------|
---2-------2-----|-------3-----3-----|---3---3-----3---|---0---------0---|-2--------|
-0---------------|---3-------3---3---|-----5-----------|-------------2---|-3--------|
-----------------|-1---------------1-|-----------------|-3-----------3---|-3--------|
-----------------|-------------------|-3---------------|-----------------|-1--------|
 
 

Видео