Blink 182 - All Of This, аккорды

Прокрутка
Тональность
Шрифт
100
Intro:
E|-------------------------------------------------|
B|-------------------------------------------------|
G|-------------------------------------------------|
D|-------------------------------------------------| 2x
A|--------0h2-0-0h2--4-4/5--2--------0h2~--0~------|
E|--2--4-------------------------2--4--------------|
 
Verse:
E|----------------------------------|
B|----------------------------------|
G|--------------------444--666--7---|
D|--4444444444444444--xxx--xxx--x---| 4x
A|--xxxxxxxxxxxxxxxx--222--444--5---|
E|--2222222222222222----------------|

Chorus:
E|-----------------------------------------|
B|-----------------------------------------|
G|-----------------------------------------|
D|--444444444444--2222--7777777777777777---| 2x
A|--xxxxxxxxxxxx--xxxx--xxxxxxxxxxxxxxxx---|
E|--222222222222--0000--5555555555555555---|

Pre-verse:
E|-------------------------------------------------|
B|-------------------------------------------------|
G|-------------------------------------------------|
D|-------------------------------------------------| 2x
A|--------0h2-0-0h2--4-4/5--2--------0h2~--0~------|
E|---2--4-----------------------2--4---------------|

Verse 2:
E|----------------------------------|
B|----------------------------------|
G|--------------------444--666--7---|
D|--4444444444444444--xxx--xxx--x---| 4x
A|--xxxxxxxxxxxxxxxx--222--444--5---|
E|--2222222222222222----------------|

Chorus:
E|-----------------------------------------|
B|-----------------------------------------|
G|-----------------------------------------|
D|--444444444444--2222--7777777777777777---| 2x
A|--xxxxxxxxxxxx--xxxx--xxxxxxxxxxxxxxxx---|
E|--222222222222--0000--5555555555555555---|

Bridge:
E|--------------------------------------------------------|
B|--------------------------------------------------------|
G|--------------------------------------------------------|
D|--------------------------------------------------------| 2x
A|--------0h2-0-0h2--4-4/5--2--------0h2-0-0h2--4-4/5--2--|
E|--2--4-------------------------2--4---------------------|

E|---------------------------------------------|
B|---------------------------------------------|
G|---------------------------------------------|
D|-----7----7----7---66----7----7----7---77----| 4x
A|---------------------------------------------|
E|--55---55---55---4----55---55---55---9-------|

Chorus:
E|-----------------------------------------|
B|-----------------------------------------|
G|-----------------------------------------|
D|--444444444444--2222--7777777777777777---| 2x
A|--xxxxxxxxxxxx--xxxx--xxxxxxxxxxxxxxxx---|
E|--222222222222--0000--5555555555555555---|

Bridge:
E|--------------------------------------------------------|
B|--------------------------------------------------------|
G|--------------------------------------------------------|
D|--------------------------------------------------------| 2x
A|--------0h2-0-0h2--4-4/5--2--------0h2-0-0h2--4-4/5--2--|
E|--2--4-------------------------2--4---------------------|

E|----------------------------------|
B|----------------------------------|
G|--6666666666666666--444--666------|
D|--xxxxxxxxxxxxxxxx--xxx--xxx--7---| 2x
A|--4444444444444444--222--444--x---|
E|------------------------------5---|

Verse 3:
E|----------------------------------|
B|----------------------------------|
G|--------------------444--666--7---|
D|--4444444444444444--xxx--xxx--x---| 4x
A|--xxxxxxxxxxxxxxxx--222--444--5---|
E|--2222222222222222----------------|
 
 

Видео