Blink 182 - Adam, аккорды

Прокрутка
Тональность
Шрифт
100
Intro: x2 (Играем плавно и красиво)
E|--------------|---------------|---------------|--------------|
B|--------------|---------------|---------------|--------------|
G|--------------|---------------|---------------|--------------|
D|---4-0----4-0-|---4-0-----4-0-|---4-0-----4-0-|---4-0----4-0-|
A|-2------2-----|-0------0------|---------------|--------------|
E|--------------|---------------|-3-------3-----|-0------3-----|
 
Verse 1: 
Main Riff 1: x4
E|---------------|-------------|---------------|---------------|
B|---------------|-------------|---------------|---------------|
G|---------------|-------------|---------------|---------------|
D|---------------|-------------|---------------|---------------|
A|3-3-3-3-3-3-3-3|-------------|0-0-0-0-0-0-0-0|---------------|
E|---------------|1-1-1-1-1-1-1|---------------|1-1-1-1-1-1-1-1|

I never thought I'd die alone
I laughed the loudest who'd have known?
I trace the cord back to the wall
No wonder it was never plugged in at all

I took my time, I hurried up
The choice was mine I didn't think enough
I'm too depressed to go on
You'll be sorry when I'm gone

Interlude: x2
E|---------------|--------------|------------------|
B|---------------|--------------|------------------|
G|-----0-------0-|-----0------0-|------------------|
D|---7-------7---|---9------9---|----4--0-----4--0-|
A|-5-------5-----|-7------7-----|-2--------2-------|
E|---------------|--------------|------------------|

E|------------------|
B|------------------|
G|------------------|
D|----4--0-----4--0-|
A|------------------|
E|-3-------3--------|

Verse 2:

Main Riff 2: x2
E|---------------|---------------|---------------|-------------|
B|---------------|---------------|---------------|-------------|
G|5-5-5-5-5-5-5-5|7-7-7-7-7-7-7-7|2-2-2-2-2-2-2-2|3-3-3-3-3-3-3|
D|5-5-5-5-5-5-5-5|7-7-7-7-7-7-7-7|2-2-2-2-2-2-2-2|3-3-3-3-3-3-3|
A|3-3-3-3-3-3-3-3|5-5-5-5-5-5-5-5|0-0-0-0-0-0-0-0|1-1-1-1-1-1-1|
E|---------------|---------------|---------------|-------------|

I never conquered, rarely came
16 just held such better days
Days when I still felt alive
We couldn?t wait to get out side

Chorus:

Main Riff 3: x2
E|-------------|---------------|---------------|---------------|
B|-------------|---------------|---------------|---------------|
G|5-5-5-5-5-5-5|7-7-7-7-7-7-7-7|2-2-2-2-2-2-2-2|3-3-3-3-3-3-3-3|
D|5-5-5-5-5-5-5|7-7-7-7-7-7-7-7|2-2-2-2-2-2-2-2|3-3-3-3-3-3-3-3|
A|3-3-3-3-3-3-3|5-5-5-5-5-5-5-5|0-0-0-0-0-0-0-0|1-1-1-1-1-1-1-1|
E|-------------|---------------|---------------|---------------|

The world was wide, too late to try
The tour was over I'd survived
I couldn't wait till I got home
To pass the time in my room alone

Interlude = Intro: x2
E|--------------|---------------|---------------|--------------|
B|--------------|---------------|---------------|--------------|
G|--------------|---------------|---------------|--------------|
D|---4-0----4-0-|---4-0-----4-0-|---4-0-----4-0-|---4-0----4-0-|
A|-2------2-----|-0------0------|---------------|--------------|
E|--------------|---------------|-3-------3-----|-0------3-----|

Verse 3:

Main Riff 1: x4
E|---------------|-------------|---------------|---------------|
B|---------------|-------------|---------------|---------------|
G|---------------|-------------|---------------|---------------|
D|---------------|-------------|---------------|---------------|
A|3-3-3-3-3-3-3-3|-------------|0-0-0-0-0-0-0-0|---------------|
E|---------------|1-1-1-1-1-1-1|---------------|1-1-1-1-1-1-1-1|

I never thought I'd die alone
Another six months I'll be unknown
Give all my things to all my friends
You'll never set foot in my room again

You'll close it off, board it up
Remember the time that I spilled the cup
Of apple juice in the hall
Please tell mom this is not her fault

Interlude:
E|--------------|--------------|---------------|---------------|
B|--------------|--------------|---------------|---------------|
G|-----0------0-|-----0------0-|---------------|---------------|
D|---7------7---|---9------9---|----4-0----4-0-|----4------4---|
A|-5------5-----|-7------7-----|-2------2------|------5------5-|
E|--------------|--------------|---------------|-3-------3-----|

Verse 3:

Main Riff 2: x2
E|---------------|---------------|---------------|-------------|
B|---------------|---------------|---------------|-------------|
G|5-5-5-5-5-5-5-5|7-7-7-7-7-7-7-7|2-2-2-2-2-2-2-2|3-3-3-3-3-3-3|
D|5-5-5-5-5-5-5-5|7-7-7-7-7-7-7-7|2-2-2-2-2-2-2-2|3-3-3-3-3-3-3|
A|3-3-3-3-3-3-3-3|5-5-5-5-5-5-5-5|0-0-0-0-0-0-0-0|1-1-1-1-1-1-1|
E|---------------|---------------|---------------|-------------|

I never conquered, rarely came
16 just held such better days
Days when I still felt alive
We couldn't wait to get outside

Chorus:

Main Riff 3: x2
E|-------------|---------------|---------------|---------------|
B|-------------|---------------|---------------|---------------|
G|5-5-5-5-5-5-5|7-7-7-7-7-7-7-7|2-2-2-2-2-2-2-2|3-3-3-3-3-3-3-3|
D|5-5-5-5-5-5-5|7-7-7-7-7-7-7-7|2-2-2-2-2-2-2-2|3-3-3-3-3-3-3-3|
A|3-3-3-3-3-3-3|5-5-5-5-5-5-5-5|0-0-0-0-0-0-0-0|1-1-1-1-1-1-1-1|
E|-------------|---------------|---------------|---------------|

 The world was wide, too late to try
 The tour was over I'd survived
 I couldn't wait till I got home
 To pass the time in my room alone

Main Riff 4: (играют 2 гитары, эта первая, но вот как играет
вторая - не знаю, и пианино тут тоже подыгрывает)
E|------------|-----------|-----------|-----------------|
B|------------|-----------|-----------|-----------------|
G|------------|-----------|-----------|-----------------|
D|---5---5--5-|---5-5---5-|---5-5---5-|---5-5------5----|
A|-3---3------|-3-----3---|-3-----3---|-3-----3--3----3-|
E|------------|-----------|-----------|-----------------|

E|-----------|-----------|-------------|--------|-------|
B|-----------|-----------|-------------|--------|-------|
G|-----------|-----------|-------------|--------|-------|
D|---5---5-5-|---5-5---5-|---5-5----5--|---5-5--|----0--|
A|-3---3-----|-3------3--|-0------0---0|-3------|-3-----|
E|-----------|-----------|-------------|--------|-------|

E|---------------3-2------------------------------------|
B|--------3----3------------3--------------3--5--7--13--|
G|------5----5-------5----5--------5-----5--------------|
D|----5-----------------5------3-------5----------------|
A|-3---------------------------------3------------------|
E|------------------------------------------------------|

E|------------------|
B|------------------|
G|-------5--------5-|
D|----5--------5----|
A|-3--------3-------|
E|------------------|

Chorus:

Main Riff 3: x2
E|-------------|---------------|---------------|---------------|
B|-------------|---------------|---------------|---------------|
G|5-5-5-5-5-5-5|7-7-7-7-7-7-7-7|2-2-2-2-2-2-2-2|3-3-3-3-3-3-3-3|
D|5-5-5-5-5-5-5|7-7-7-7-7-7-7-7|2-2-2-2-2-2-2-2|3-3-3-3-3-3-3-3|
A|3-3-3-3-3-3-3|5-5-5-5-5-5-5-5|0-0-0-0-0-0-0-0|1-1-1-1-1-1-1-1|
E|-------------|---------------|---------------|---------------|

I never conquered, rarely came
But tomorrow holds such better days
Days when I can still feel alive
When I can't wait to get outside
The world is wide, the time goes by
The tour is over, I've survived
I can't wait till I get home
To pass the time in my room alone
 
 

Видео