Blink 182 - Ben Wah Balls (2 вариант), аккорды

Прокрутка
Тональность
Шрифт
100
|--------|--------|--------|--------|--------|--------|--------|--------|
|--------|--------|--------|--------|--------|--------|--------|--------|
|55555555|--------|55555555|22220000|55555555|22220000|--------|--------|
|--------|33333333|--------|--------|--------|--------|33333333|33333333|

|--------|--------|--------|--------|--------|--------|--------|--------|
|--------|--------|--------|--------|--------|--------|--------|--------|
|55555555|--------|55555555|22220000|55555555|22220000|--------|--------|
|--------|33333333|--------|--------|--------|--------|33333333|33333333|

|--------|--------|--------|--------|--------|--------|--------|--------|
|--------|--------|--------|--------|--------|--------|--------|--------|
|55555555|--------|55555555|22220000|55555555|22220000|--------|--------|
|--------|33333333|--------|--------|--------|--------|33333333|33333333|

|--------|--------|--------|--------|--------|--------|--------|--------|
|--------|--------|--------|--------|--------|--------|--------|--------|
|55555555|--------|--------|--------|55555555|--------|--------|--------|
|--------|77777777|55555555|33333333|--------|77777777|55555555|33333333|

|------22|--------|--------|00000---|------22|--------|--------|00000---|
|002244--|----0044|------22|-----420|002244--|----0044|------22|-----420|
|--------|2244----|002244--|--------|--------|2244----|002244--|--------|
|--------|--------|--------|--------|--------|--------|--------|--------|

|--------|--------|--------|--------|--------|--------|--------|--------|
|--------|--------|--------|--------|--------|--------|--------|--------|
|55555555|--------|--------|--------|55555555|--------|--------|--------|
|--------|77777777|55555555|33333333|--------|77777777|55555555|33333333|

|--------|--------|--------|--------|--------|--------|--------|--------|
|--------|--------|--------|--------|--------|--------|--------|--------|
|55555555|--------|55555555|22220000|55555555|22220000|--------|--------|
|--------|33333333|--------|--------|--------|--------|33333333|33333333|

|--------|--------|--------|--------|--------|--------|--------|--------|
|--------|--------|--------|--------|--------|--------|--------|--------|
|55555555|--------|55555555|22220000|55555555|22220000|--------|--------|
|--------|33333333|--------|--------|--------|--------|33333333|33333333|

|--------|--------|--------|--------|--------|--------|--------|--------|
|--------|--------|--------|--------|--------|--------|--------|--------|
|55555555|--------|--------|--------|55555555|--------|--------|--------|
|--------|77777777|55555555|33333333|--------|77777777|55555555|33333333|

|------22|--------|--------|00000---|------22|--------|--------|00000---|
|002244--|----0044|------22|-----420|002244--|----0044|------22|-----420|
|--------|2244----|002244--|--------|--------|2244----|002244--|--------|
|--------|--------|--------|--------|--------|--------|--------|--------|

|--------|--------|--------|--------|--------|--------|--------|--------|
|--------|--------|--------|--------|--------|--------|--------|--------|
|55555555|--------|--------|--------|55555555|--------|--------|--------|
|--------|77777777|55555555|33333333|--------|77777777|55555555|33333333|

|--------|--------|--------|--------|--------|--------|--------|--------|
|--------|--------|--------|--------|--------|--------|--------|--------|
|55555555|--------|55555555|22220000|55555555|22220000|--------|--------|
|--------|33333333|--------|--------|--------|--------|33333333|33333333|

|--------|--------|--------|--------|--------|--------|--------|--------|
|--------|--------|--------|--------|--------|--------|--------|--------|
|55555555|--------|55555555|22220000|55555555|22220000|--------|--------|
|--------|33333333|--------|--------|--------|--------|33333333|33333333|

|--------|--------|--------|-0--0---|--------|--------|--------|-0--0---|
|--7--7-7|--7--7-7|--7--7-7|--42-420|--7--7-7|--7--7-7|--7--7-7|--42-420|
|55-55-5-|--------|--------|--------|55-55-5-|--------|--------|--------|
|--------|77-77-7-|55-55-5-|3-------|--------|77-77-7-|55-55-5-|3-------|

|--------|--------|--------|-0--0---|--------|--------|--------|-0--0---|
|--7--7-7|--7--7-7|--7--7-7|--42-420|--7--7-7|--7--7-7|--7--7-7|--42-420|
|55-55-5-|--------|--------|--------|55-55-5-|--------|--------|--------|
|--------|77-77-7-|55-55-5-|3-------|--------|77-77-7-|55-55-5-|3-------|

|------22|--------|--------|00000---|------22|--------|--------|00000---|
|002244--|----0044|------22|-----420|002244--|----0044|------22|-----420|
|--------|2244----|002244--|--------|--------|2244----|002244--|--------|
|--------|--------|--------|--------|--------|--------|--------|--------|

|------22|--------|--------|00000---|------22|--------|--------|00000---|
|002244--|----0044|------22|-----420|002244--|----0044|------22|-----420|
|--------|2244----|002244--|--------|--------|2244----|002244--|--------|
|--------|--------|--------|--------|--------|--------|--------|--------|

|------22|--------|--------|00000---|------22|--------|--------|00000---|
|002244--|----0044|------22|-----420|002244--|----0044|------22|-----420|
|--------|2244----|002244--|--------|--------|2244----|002244--|--------|
|--------|--------|--------|--------|--------|--------|--------|--------|

|--------|--------|--------|--------|--------|--------|--------|--------|
|--------|--------|--------|--------|--------|--------|--------|--------|
|55555555|--------|55555555|22220000|55555555|22220000|--------|--------|
|--------|33333333|--------|--------|--------|--------|33333333|33333333|

|--------|--------|--------|--------|--------|--------|--------|--------|
|--------|--------|--------|--------|--------|--------|--------|--------|
|55555555|--------|55555555|--------|55555555|--------|55555555|--------|
|--------|33333333|--------|33333333|--------|33333333|--------|33333333|

|--------|--------|--------|--------|--------|--------|--------|--------|
|--------|--------|--------|--------|--------|--------|--------|--------|
|55555555|--------|55555555|22220000|55555555|22220000|--------|--------|
|--------|33333333|--------|--------|--------|--------|33333333|33333333|

|--------|--------|--------|--------|--------|--------|--------|--------|
|--------|--------|--------|--------|--------|--------|--------|--------|
|55555555|--------|55555555|22220000|55555555|22220000|--------|--------|
|--------|33333333|--------|--------|--------|--------|33333333|33333333|

|-------|
|-------|
|55-----|
|-------|
 
 

Видео