Blink 182 - A New Hope, аккорды

Прокрутка
Тональность
Шрифт
100
Intro:
e|-------------------------------------------------------------------------|
B|-8-88-88--8-88-88--8-88-88--7-77-77--8-88-88--8-88-88--8-88-88--7-77-77--|
G|-0-00-00--0-00-00--0-00-00--0-00-00--5-55-55--5-55-55--7-77-77--7-77-77--| x4
D|-------------------------------------------------------------------------|
A|-------------------------------------------------------------------------|
E|-------------------------------------------------------------------------|

Verse:
e|--------------------------------------------------------------------------|
B|-----------------------------------------------8-88-88-7-77-77------------|
G|-----------5555--7777----------------5555-7777-0-00-00-0-00-00------------|x2
D|-55555555--5555--7777-x2---22222222--5555-7777----------------------------|
A|-55555555--3333--5555------22222222--3333-5555----------------on 2nd time-|
E|-33333333------------------00000000-----------------------------/////////-|

Chorus:
e|-----------------------------------------------------------------------------|
B|-----------------------------------------------------------------------------|
G|-55555555--77777777----------------------------------------55555555-77777777-|
D|-55555555--77777777---55-555-7--55-555-4-55-555-7-55-555-4-55555555-77777777-|
A|-33333333--55555555---55-555-7--55-555-4-55-555-7-55-555-4-33333333-55555555-|
E|----------------------33-333-5--33-333-2-33-333-5-33-333-2-------------------|
       
Intro:
e|-------------------------------------------------------------------------|
B|-8-88-88--8-88-88--8-88-88--7-77-77--8-88-88--8-88-88--8-88-88--7-77-77--|
G|-0-00-00--0-00-00--0-00-00--0-00-00--5-55-55--5-55-55--7-77-77--7-77-77--| x2
D|-------------------------------------------------------------------------|
A|-------------------------------------------------------------------------|
E|-------------------------------------------------------------------------|

Verse:
e|---------------------------------------------------------------------------|
B|-----------------------------------------------8-88-88--7-77-77------------|
G|----------5555-7777--------------5555--7777----0-00-00--0-00-00------------|x2
D|-55555555-5555-7777-x2-22222222--5555--7777--------------------------------|
A|-55555555-3333-5555----22222222--3333--5555--------------------on 2nd time-|
E|-33333333--------------00000000----------------------------------/////////-|

Chorus:
e|-----------------------------------------------------------------------------|
B|-----------------------------------------------------------------------------|
G|-55555555--77777777--------------------------------------55555555-77777777---|
D|-55555555--77777777--55-555-7-55-555-4-55-555-7-55-555-4-55555555-77777777-5-|
A|-33333333--55555555--55-555-7-55-555-4-55-555-7-55-555-4-33333333-55555555-5-|
E|---------------------33-333-5-33-333-2-33-333-5-33-333-2-------------------3-|
       
Solo:
e|---------------------------------------------------------------------------|
B|---------------------------------------------------------------------------|
G|------------------4h7----4h7----4h7-4----5h4----5h4----5h4-4--x4-----------|
D|-55-55-55-55---55-----55-----55-------55-----55-----55---------------------|
A|-55-55-55-55---------------------------------------------------------------|
E|-33-33-33-33---------------------------------------------------------------|

Intsrumental:
e|---------------------------------------------------------------------------|
B|---------------------------------------------------------------------------|
G|-------7777--5555-44-55-9999-7777----------on-4th---9----------------------|
D|-5555--7777--5555-44-55-9999-7777-x3--------time----9----------------------|
A|-5555--5555--3333-22-33-7777-5555----------end-on---7----------------------|
E|-3333----------------------------------------------------------------------|

Chorus:
e|---------------------------------------------------------------------------|
B|---------------------------------------------------------------------------|
G|-55555555--77777777--------------------------------------------------------|
D|-55555555--77777777---55-555-7--55-555-4--55-555-7--55-555-4--x2-----------|
A|-33333333--55555555---55-555-7--55-555-4--55-555-7--55-555-4---------------|
E|----------------------33-333-5--33-333-2--33-333-5--33-333-2---------------|

Outro:
e|---------------------------------------------------------------------------|
B|---------------------------------------------------------------------------|
G|-55555555--77777777----------------------55555555--77777777----------------|
D|-55555555--77777777--55555555--77777777--55555555--77777777--55555555------|
A|-33333333--55555555--55555555--77777777--33333333--55555555--55555555------|
E|---------------------33333333--55555555----------------------33333333------|
 
 

Видео