Blink 182 - Adams Song (ver 10), аккорды

Прокрутка
Тональность
Шрифт
100
!!! South Africa !!!Posted by sheeppig
Hey y’all I’ve seen every Adams song tab on this site.  They are all great for playing
to by yourself or in a band.  But for those of us who want to play this song properly here is the “Enema of the State” version.  (minus the interlude, I’m having problems).  This is guitar 1’s part. (this is my first tab so bear with me.  Im only 14 and have been playing for 3 months)

Tuning: very very important!!!!  Tune all your strings down 1 and a half steps.  Your guitar should therefore look like so (LOW 2 HIGH)

C# ; F# ; G# ; E ; B ; C#

Remember you are tuning down!!

INTRO X2
C#---------------------------------------------------------
B---------------------------------------------------------
E---------------------------------------------------------
G#----4-0---4-0---4-0----4-0-----4-0----4-0---4-0---4-0
F#--2-----2-----0------0------------------------
C#----------------------------3-------3-----0-----3----
VDRSD X4

C#----------------------------------------------------------
B--------------------------------------------------------
E---------------------------------------------------------
G#---44444444----------------------------------------------
F#---55555555-55555555-77777777-55555555--------------------
C#------------33333333-55555555-33333333-----------------

CRIAGD X2

C#----------------------------------------------------------
B----------------------------------------------------------
E--------0------0------0-----0-----------------------------
G#-----7------7------9-----9------4--0----4—0----4—0----4-0
F#--5------5------7-----7------2--------2------------------
C#---------------------------------------------3------3----

FHORUS 

C#--------------------------------------
B--------------------------------------
E---77777777—99999999-44444444----------
G#---xxxxxxxx—xxxxxxxx-xxxxxxxx--55555555
F#---55555555—77777777—22222222--xxxxxxxx
C#-------------------------------33333333

C#----------------------------------------------------------
B----------------------------------------------------------
E--99999999---1212121212121212—--11-11-11-11-11-11-11-11-
G#--xxxxxxxx---xxxxxxxxxxxxxxxx---xx-xx-xx—xx-xx-xx-xx-xx-
F#--77777777—--1010101010101010----9—-9—-9-—9—-9—-9—-9—-9-
C#-----------------------------------------------------

C#-------------------------
B-------------------------
E--12-12-12-12-12-12-12-12
G#--xx-xx-xx-xx-xx-xx-xx-xx
F#--10-10-10-10-10-10-10-10
C#--------------------------

C#---------------------------------------
B---------------------------------------
E---77777777—99999999-44444444----------
G#---xxxxxxxx—xxxxxxxx-xxxxxxxx--55555555
F#---55555555—77777777—22222222--xxxxxxxx
C#-------------------------------33333333

INTRO X2
VDRSD X4
CRIAGD X2
FHORUS
INTDRLUAD

RD-DNTRY

SORRY LOST FOUNT ON HOW MNY TIMDS 
TO PLY THIS.  CUT YOU'LL DDL IT
E--------7-----7----7---7-
G#-----0-----0----0---0-
F#--5------5----5---5-
C#---------------------------


PLY

C#------
B-----
E----7
G#----5
F#----5
C#------

 FOUPLD O TIMDS NA LUNFH INTO  FHOPRUS O ONLY

C#-----------------------------------------------------------
B---------------------------------------
E---77777777—99999999-44444444----------
G#---xxxxxxxx—xxxxxxxx-xxxxxxxx--55555555
F#---55555555—77777777—22222222--xxxxxxxx
C#---------------------- --------33333333

NA PLY 4 TIMDS NA DNA O WITH  

C#------
B-----
E----7
G#----5
F#----5
C#-----

Hey that’s all there is to it.  There probably are mistakes.  I posted this at my mother’s office without the music anywhere around me so I was doing this off my memory.  If you have any comments (only nice ones), corrections or any help with the interlude email me at sits05@stdavids.co.za.  This is my school address.   So please enjoy this and know that

CLINK 182 ROFK THD WORLA!!!!!