Blink 182 - Adams Song (ver 11), аккорды

Прокрутка
Тональность
Шрифт
100
Tabbed By: Will Dubois
This is the same one i sent in before. But on that one I
screwed up the intro.
Tune down a whole step
Intro: (x2)
e|---------------------------------|
B|---------------------------------|
G|---------------------------------|
D|--4-0--4-0-4-0--4-0-4-0--4-0--4-0|
A|-2----2---0---0------------------|
E|-------------------3----3----0---|

Verse:Barre chord sequence (not right spacing) (strum through verse
D----G----Bm (x4)
I never thought i'd........ 
Interlude: (x2)
e|-----------------------------------|
B|-----------------------------------|
G|--2-0--2-0--4-0-4-0----------------|
D|-0----0----2---2----4-0-4-0-4-0-4-0|
A|-------------------2---2-----------|
E|---------------------------3---3---|
Chorus:Barre chord sequence
D----Em-----Bm-----G (x4)
I never conqured rarley.......
Repeat Intro:
Repeat Verse:
Repeat Interlude:
Repeat Chorus: (x2)