Blink 182 - Carousel (ver 15), аккорды

Прокрутка
Тональность
Шрифт
100
Blink 182 , Carousel ( Buddha).
 Tabbed by Anthony Calderone, Tonyc_67@hotmail.com or Nocigar2001@yahoo.com.
  
This is from Buddha and the Live Version.

Intro
------------------------------------------------------------------------------------------------------------
----7777-9999-10-10-10-10-7777------------------------------------------------------------------------------
------------------------------------------------------------------------------------------------------------

Riff1 
------------------------------------------------------------------------------------------------------------
-77777-------------------------------------------------77777--77777-99999-55555-----------------------------
-55555--77777-99999-55555-------------------------------------55555-77777-33333-----------------------------

Riff2

------------------------------------------------------------------------------------------------------------
-77----77777777----------------------------------------77----77777777---------------------------------------
-55----55555555---------------------------------------------------------------------------------------------

Solo

------------------------------------------------------------------------------------------------------------
------------------------------------------------------4444542-4444542-4445777542-4444542-4444542-0040507540-
------------------------------------------------------------------------------------------------------------

Verse
------------------------------------------------------------------------------------------------------------
-77777-------------------------------------------------77777--77777-99999-55555-----------------------------
-55555--77777-99999-55555-------------------------------------55555-77777-33333-----------------------------

Chorus
--------------------------------------------------------------------------------------------------------
-----77777--99999--------------------------------------77777--99999-77777-55555-------------------------
-----55555--77777-77777-55555-------------------------------------------55555-33333---------------------

Riff3 

------------------------------------------------------
------------------------------------------------------
------------------------------------------------------
----45754---------------------------------------------
---5-----5--45754----67976---23532--------------------
-----------5------5-7-----7-3-------------------------

Order
 Intro x 4 
 Riff1 x 2
 Riff2 x 2
 Solo  x 1
 Verse x 4
 Chorus x 4
 Solo  x 1
 Riff1 x 2 
 Riff3 x 4 
 Chorus x 4 


 
:: Ultimate Guitar Archive :: 
http://www.ultimate-guitar.com