Blink 182 - Grandpa Is An Asshole, аккорды

Прокрутка
Тональность
Шрифт
100
Band:Blink 182
Song:Grandpa is an asshole

E:--------------------------------------------------|
A:--------------------------------------------------|
D:---------------------------0-----0------0----0----|
G:----7--9--7---7--9--7-----7-----9-----6-----6-----|
B:--7----------7------------------------------------|
E:--------------------------------------------------|

E:--------------------------------------------------|
A:--------------------------------------------------|
D:---------------------------0-----0------0----0----|
G:----7--9--7---7--9--7-----7-----9-----6-----6-----|
B:--7----------7------------------------------------|
E:--------------------------------------------------|