Blink 182 - Sometimes, аккорды

Прокрутка
Тональность
Шрифт
100
This is a really cool solo.it sounds great on the 2 albums.i dont think its 
perfectly right but id like some feedback from it please.enjoy playing it!

e----------------------------------------------------------
b----------------------------------------------------------
g------777--------------------7----------------------------
d-9999-----10-9-7-7----7-9-10---7-9-10-10-9-10-------------
a-------------------10-------------------------10----------
e----------------------------------------------------------

e---------------------------------------------------------
b---------------------------------------------------------
g-------777-------------------7---------------------------
d--9999-----10-9-7-7-5-7-5-7-5---10-9-7-------------------
a---------------------------------------10----------------
e---------------------------------------------------------
 
 

Видео