Blink 182 - American Pie Theme Song, аккорды

Прокрутка
Тональность
Шрифт
100
INTRO
G:---------------------------------------------------:
D:---------------------------------------------------:
A:000000000000000000000000055555555555555555555555555:
E:---------------------------------------------------:
VERSE1
G:------------------------------------------------------:
D:------------------------------------------------------:
A:0000000000000--------------666666666666664444444444444:
E:-------------77777777777777---------------------------:
VERSE2/CHORUS1
G:------------------------------------------------------:
D:------------------------------------------------------:
A:0000000000000--------------555555555555554444444444444:
E:-------------77777777777777---------------------------:
CHORUS2
G:----------------------------:
D:----------------------------:
A:0000000000000000000-7-5-75--:
E:--------------------------75:
VERSE4
G:-----------------------------------------------:
D:-----------------------------------------------:
A:0-000-7h9-0-000-5h7-0000007777-4444------------:
E:-----------------------------------------------:
RIFF1
G:-----------------------------:
D:-----------------------------:
A:00------66-44--00------55-44-:
E:----77-------------77--------:
END.
G:------------------------------:
D:------------------------------:
A:0-00-0-00-00----666444--------:
E:------------7-77--------------:
 
 

Видео