Croce Jim - Time In A Bottle, аккорды

Прокрутка
Тональность
Шрифт
100
Verse:

Guitar 1:
e|-------1-------|-------1------|-------1------|-------1-----|
b|-----3---3-----|-----3---3----|-----3---3----|-----3---3---|
g|---2-------2---|---2-------2--|---2-------2--|---0-------0-|
d|-0-------------|--------------|--------------|-------------|
a|---------------|-4------------|-3------------|-2-----------|
e|---------------|--------------|--------------|-------------|

e|-------0-------|--------------|-0---3----1---|---0h2-------|
b|-----3---3-----|-3--2----2--3-|-----3----2---|-------------|
g|---0-------0---|-------3------|--------------|-------------|
d|---------------|--------------|--------------|-------------|
a|-1-------------|-1--0----0--1-|-4------------|-------------|
e|---------------|--------------|--------------|-------------|

Guitar 2:
e|---10---10---10|---9----9----9|---8----8----8|--7---7---7--|
b|10---10---10---|10---10---10--|10---10---10--|8---8---8----|
g|---------------|--------------|--------------|-------------|
d|---------------|--------------|--------------|-------------|
a|---------------|--------------|--------------|-------------|
e|---------------|--------------|--------------|-------------|

e|-6--6-6-6-6--6-|--------------|-0---3----1---|---0h2-------|
b|8--5-6-8-6--5--|-3--2----2--3-|-----3----2---|-------------|
g|---------------|-------3------|--------------|-------------|
d|---------------|--------------|--------------|-------------|
a|---------------|-1--0----0--1-|-4------------|-------------|
e|---------------|--------------|--------------|-------------|
 
 

Видео