Dava - Под гитару, аккорды

Прокрутка
Тональность
Шрифт
100
Вступление

e|---------x-----|-------|---------x-----|-------|
B|-------1-x---0-|-----1-|---------x-----|-----0-|
G|-----2---x-2---|-----2-|-------4-x-----|-----1-|
D|---2-----x-----|-----3-|-----5---x-5-7-|-----2-|
A|-0-------x-----|-------|---5-----x-----|-------|
E|---------x-----|-1-1---|-3-------x-----|-0-0---|

            Am                    F
Когда тебя увидел - сразу стало понятно мне,
               G                    E
Что сердца половина, а другую взяла себе ты.
                Am              F
Без памяти в глаза в эти серые, как туман,
               G                  E
Не говорю друзьям, понимаю пропал пацан.
            Am                 F
Не надо ничего, ни кино, ни по гаражам,
           G               E
Я достаю гитару и сижу уже битый час.
            F              Dm
Я напишу стихи на попсовую музыку
               E
И завтра во дворе подарю тебе ее.

Припев x2
                 Am             F
  А я спою для тебя песню под гитару
                G              E
  И пусть она играет на весь район,
           F                 Dm
  Но если опять целовать не станешь,
               E
  Останусь ночевать под твоим окном.

Проигрыш

e|---------x-----|-------|---------x-----|-------|
B|-------1-x---0-|-----1-|---------x-----|-----0-|
G|-----2---x-2---|-----2-|-------4-x-----|-----1-|
D|---2-----x-----|-----3-|-----5---x-5-7-|-----2-|
A|-0-------x-----|-------|---5-----x-----|-------|
E|---------x-----|-1-1---|-3-------x-----|-0-0---|

                Am               F
Ты не пришла вчера, и я снова не мог уснуть,
                G                       E
Все подбирал слова, чтоб сказать, как тебя люблю.
                Am              F
Я больше не вывожу, себя не узнаю,
               G             E
Нарву цветов в парке и точно тебя дождусь.
             Am           F
У подъезда с бабками подружусь,
               G                E
Град и снег, и ливни – все выдержу.
         F                Dm
И когда увидишь – сама поймешь,
             E
От меня не уйдешь, не уйдешь, не уйдешь.

Припев x2
                 Am             F
  А я спою для тебя песню под гитару
                G              E
  И пусть она играет на весь район,
           F                 Dm
  Но если опять целовать не станешь,
               E
  Останусь ночевать под твоим окном.

Проигрыш x2
Am F G E F Dm E

e|-8-8-8-7-8-7-8-8-8-7-8-10-|-7-7-7-5-7-5-7-7-7-5-7-8-8-7-|-8-8-7-8-7-8-8-8-7-8-10-8-|-10-12-12-10-12-7-|
B|--------------------------|-----------------------------|--------------------------|------------------|
G|--------------------------|-----------------------------|--------------------------|------------------|
D|--------------------------|-----------------------------|--------------------------|------------------|
A|--------------------------|-----------------------------|--------------------------|------------------|
E|--------------------------|-----------------------------|--------------------------|------------------|

e|-7-8-8-8-7-8-8-7-8-10-8-|-10-10-10-8-10-10-8-10-12-12-|-10-8-8-5-7-8-|-8-10-8-10-|
B|------------------------|-----------------------------|--------------|-----------|
G|------------------------|-----------------------------|--------------|-----------|
D|------------------------|-----------------------------|--------------|-----------|
A|------------------------|-----------------------------|--------------|-----------|
E|------------------------|-----------------------------|--------------|-----------|

Припев x2
                 Am             F
  А я спою для тебя песню под гитару
                G              E
  И пусть она играет на весь район,
           F                 Dm
  Но если опять целовать не станешь,
               E
  Останусь ночевать под твоим окном.

Концовка

e|---------x-----|-------|---------x-----|-------|
B|-------1-x---0-|-----1-|---------x-----|-----0-|
G|-----2---x-2---|-----2-|-------4-x-----|-----1-|
D|---2-----x-----|-----3-|-----5---x-5-7-|-----2-|
A|-0-------x-----|-------|---5-----x-----|-------|
E|---------x-----|-1-1---|-3-------x-----|-0-0---|

Комментарий автора:

Опускаем струны на полутон вниз и будет как в оригинале.
 
 
Свернуть Распечатать

Видео