Deadsy - She Likes Big Words, аккорды

Прокрутка
Тональность
Шрифт
100
Author/Artist: Deadsy
Title: She Likes Big Words
Album: Commencment
Transcribed by: Lucas Aske
Email: p_exeter@yahoo.com

Tuning:A# F A# D# G# C#

------------------------------------------------------------------------------
------------------------------------------------------------------------------
------------------------------------------------------------------------------
-6--6--8--8--8--10---6--6--8--8--8--10---6--6--8--8--10---6--6--8--5--4--1----
-4--6--6--6--8--8----4--6--6--6--8--8----4--6--6--8--8----4--6--6--3--4--1----
----6--------8----------6--------8----------6-----8----------6--------4--1----
                                                                              

------------------------------------------------------------------------------
------------------------------------------------------------------------------
------------------------------------------------------------------------------
-6----6----8----8----6-----6-----8-----8----6----6----8----8----6----6----5-4-
-4----6----6----8----4-----6-----6-----8----4----6----6----8----4----6----3-4-
------6---------8----------6-----------8---------6---------8---------6------4-
 
 

Видео