Dexys Midnight Runners - Come On Eileen, аккорды

Прокрутка
Тональность
Шрифт
100
     This is the original version of Come on Eileen, by Dexy's Midnight 
Runners. It is not the save ferris version. Any questions e-mail me at 
green_hell66@hotmail.com. Tabbed by Sean Shannon
          (verse first time.)
G:---------------------------------------------------------------
D:----------2-3-5-55-5-55-4-3-33-3-33-2------/5-55---------------
A:-3-33-3-3-----------------------------3-33---------------------
E:---------------------------------------------------------------
          (verse second time.)
G:-------------------------------------------------------------------
D:----------2-3-5-55-5-55-4-3-33-3-33-2------/5-55-5-55--------------
A:-3-33-3-3-----------------------------3-33-------------------------
E:-------------------------------------------------------/3-33-3-33--
          (Chorus)
G:----------------------------------------------------------------
D:----------------7-----7-----7--5-----5-----5-55-5-----7---------
A:-5-----5-----5----9-7---9-7------5-7---5-7--------5-7---7-9-----
E:---5-7---5-7----------------------------------------------------

G:--------------------------------------------------------------------
D:--------------------------------------------------------------------
A:--------------------------------------------------------------------
E:-5-55-5-55----------------------------------------------------------
           (Bridge, it speeds up)
G:-----------------------------------------------------------------
D:--------4-5-7-7-77-6-5-5-55-4---------7--------------------------
A:-5-5-55-----------------------5-5-55-----------------------------
E:-----------------------------------------------------------------
 
 

Видео