Доберман - Русская вендетта, аккорды

Прокрутка
Тональность
Шрифт
100
Вступление:
 Csus2  Gsus2        D     Em          
E|-3------3-----3----2>3>2--0-----0---|
B|---3------3-----3----3------0-----0-|
G|-----0------0----------2------0-----|
D|-------------------0----------------|
A|-3----------------------------------|
E|--------3-----3-----------0-----0---| x4

Csus2                        
Ветер прах развеет
Em                      
На поле поражений,
Csus2                       Em      
С лучами солнца - смертный час

Csus2                             
А в вражьих избах дети,
Em            D          
Не веря, жгут иконы...
Csus2                Em      
Их поглотит проклятый дым

Проигрыш:
 Csus2  Gsus2        D     Em          
E|-3------3-----3----2>3>2--0-----0---|
B|---3------3-----3----3------0-----0-|
G|-----0------0----------2------0-----|
D|-------------------0----------------|
A|-3----------------------------------|
E|--------3-----3-----------0-----0---| x4

Csus2                       
Ветер прах развеет
Em
На поле поражений,
Csus2                Em      
Закатом ночь укроет нас

Csus2                       
Во сне мы видим братьев,
Em             D
В бою кровавом павших,
Csus2                   Em      
Мы видим их тревожный взгляд

Припев:
D      C          
Русская вендета,
Em                        
Во имя павших братьев
C      D            Em      
Отстою свой дом и честь!
D      C   
Русская вендета,
Em
Во имя павших братьев...
C      D              Csus2   
Это месть за братский крест!

Проигрыш:
 Csus2  Gsus2        D     Em          
E|-3------3-----3----2>3>2--0-----0---|
B|---3------3-----3----3------0-----0-|
G|-----0------0----------2------0-----|
D|-------------------0----------------|
A|-3----------------------------------|
E|--------3-----3-----------0-----0---| x4

Csus2                       
Ветер прах развеет
Em                      
На поле поражений,
Csus2                    Em       
В смертный час я вспомню мать

Csus2        D       
Когда согревала
Em                      
И в бои отправляла,
Csus2                Em       
Слёзы не смогла сдержать

Csus2                        
Ветер прах развеет
Em          D           
На поле поражений,
Csus2               Em    
Конь вернулся без меня

Csus2       D         
Я один остался,
Em       D       Csus2     
Но не опозорил честь!
D                       Em     
Вспомнит сын отца и скажет...

Припев:
D      C          
Русская вендета,
Em                        
Во имя павших братьев
C      D            Em      
Отстою свой дом и честь!
D      C   
Русская вендета,
Em
Во имя павших братьев...
C      D              Csus2   
Это месть за братский крест!

Окончание:
 Csus2  Gsus2        D     Em          
E|-3------3-----3----2>3>2--0-----0---|
B|---3------3-----3----3------0-----0-|
G|-----0------0----------2------0-----|
D|-------------------0----------------|
A|-3----------------------------------|
E|--------3-----3-----------0-----0---| x7

 Csus2  Gsus2        D     Cadd9  
E|-3------3-----3----2>3>2---0-|
B|---3------3-----3----3-----3-|
G|-----0------0----------2---0-|
D|-------------------0-------2-|
A|-3-------------------------3-|
E|--------3-----3--------------|
 
 
Свернуть Распечатать

Видео