Dry Cell - Body Crumbles, аккорды

Прокрутка
Тональность
Шрифт
100
Dry Cell - Body Crumbles

Tabbed By - Brian Foster - BrianFoster326@hotmail.com

This is my first tab and I think that it sounds pretty close to their's.
Just listen to the song a couple of times to pick up the beat. It might
not be perfect because I tabbed it by ear. Just give it about 10 minutes
though and you should get it easily. I think it is about 96% to Dry Cell's.
(Rock Rules !!!)

Intro:     
e|---------------------------------------------|
B|---------------------------------------------|
G|---------------------------------------------|
D|---------------------------------------------|
A|4-------4------6--7--6-7h6p---0--7-------7-6-|
E|----4-------4---------------2------4-4-4-----|


e|------------------------------------------------|      /   |    |
B|------------------------------------------------|     /    |    |
G|------------------------------------------------|    /     -------
D|------------------------------------------------|    /          |
A|4-------4------6--7--6-7h6p---7/9-96-6-6-6-7p6-|   /           | 
E|----4-------4---------------2-------------------|  /            |
 
 

Видео