Earle Steve - Someday, аккорды

Прокрутка
Тональность
Шрифт
100
This tab wont be perfect as my rhythm is shocking. Being only 14 ive got to be the
youngest Steve Earle fan there is. Especially considering i live in Scotland.
Right here is my tab for Someday off of Guitar Town.

Intro - This is basically the acoustic part through the verses:

e|---3-----3---3-----------3---------------3---------------------3---3------
B|---3---3-3---3-----------3-------------3-3---3---3-3-3---3-3---0-3-3------
G|---0---0-0---0-0---0---0-0-----0---0---0-0-0-0-0-0-0-0---0-0---0-0-0------
D|---0---0---0---0---0---0---0---0---0---0-0-0-0-0-0-0-0---0-0-----0--------
A|---0h2-2---2---0---0h2-2---2---0h2-2h3-3---2-0-2-0---0h2-0----------------
E|-----------------3---------------------------------3---------3------------

The electric guitar through the verses meerly slashes:

  Csus2  Dsus  G5    G
e|-3-3---------3-3---3-3----------------------------------------------------
B|-3-3---3-3---3-3---3-3----------------------------------------------------
G|-0-0---0-0---0-0---0-0----------------------------------------------------
D|-0-0---0-0---0-0---0-0----------------------------------------------------
A|-3-3---0-0---------2-2----------------------------------------------------
E|-------------3-3---3-3----------------------------------------------------

Sometimes Dsus is replaced with D5

Chorus is:

   Em        C        D       G
e|-0-0-0-0--0-0-0-0--2-2-2-2--3-3-3-3---------------------------------------
B|-0-0-0-0--1-1-1-1--3-3-3-3--3-3-3-3---------------------------------------
G|-0-0-0-0--0-0-0-0--2-2-2-2--0-0-0-0---------------------------------------
D|-2-2-2-2--2-2-2-2--0-0-0-0--0-0-0-0---------------------------------------
A|-2-2-2-2--3-3-3-3-----------2-2-2-2---------------------------------------
E|-0-0-0-0--------------------3-3-3-3---------------------------------------

Over and over.

The solo is:

e|--------------------------------------------------------------------------
B|--------------------------------------------------------------------------
G|--------------------------------------------------------------------------
D|----------------------0-------------|hold|--------------------------------
A|-0h2-2-0h2--0-----0h2---0h2---0h2-2b-2-2-2r-2b-0---0h2-0------------------
E|---------------3------------3--------------------3-------3----------------

e|--------------------------------------------------------------------------
B|--------------------------------------------------------------------------
G|--------------------------------------------------------------------------
D|----------------------0-------------|hold|--------------------------------
A|-0h2-2-0h2--0-----0h2---0h2---0h2-2b-2-2-2r-2b-0---0h2-0------------------
E|---------------3------------3--------------------3-------3----------------

e|--------------------------------------------------------------------------
B|--------------------------------------------------------------------------
G|---------0---0---0---0----------------------------------------------------
D|-0-2-4/5---4---2---0------0-2--------------|hold|-------------------------
A|----------------------0h2----0h2-----0h2-2b-2-2-2r-2b-0---0h2-0-----------
E|-----------------------------------3--------------------3-------3---------

e|----------------------------3---------------------------------------------
B|-----------3-----3-----0h1------------------------------------------------
G|---------0-----0----------------------------------------------------------
D|-0-2-4/5-----4-----0h2--------0-----------|hold|--------------------------
A|------------------------------------0h2-2b-2-2-2r-2b-0---0h2--0-----------
E|----------------------------------3--------------------3---------3--------

Being my first tab go and rate me good eh?
Cheers
Printie
 
 

Видео