Запрещают песни Цоя, Агата Кристи, Наутилус Помпилиус, Зиверт
Отвечаем в отдельной теме

Europe - Hero, аккорды

Прокрутка
Тональность
Шрифт
100
Gtr I
E|-----------------------------------------------------------------------------|
B|-----------7-8-7-------------------------7--8--7-----10---11-13-11---10-8-10-|
G|-9-7-9---9-------9-7-9----7b9r=7------9----------9-7-------------------------|
D|-------9----------------------------9----------------------------------------|
A|-----------------------------------------------------------------------------|
E|-----------------------------------------------------------------------------|

 Gtr II
E|-----------------------------------------------------------------------------|
B|-8-7-8----8-10-12-10-8-7-8--7b9r=7----8-10-12-10-8-7--6----8-10--8----6----6-|
G|--------7---------------------------7-----------------------------------7----|
D|-----------------------------------------------------------------------------|
A|-----------------------------------------------------------------------------|
E|-----------------------------------------------------------------------------|

E|--------------------------------------------------------------------10-|
B|-11-13-15-13-11-10-8b10---8b10r6--6---6---6--8--6-10-11-13-11-10-------|
G|------------------------------------7---7------------------------10----|
D|-----------------------------------------------------------------------|
A|-----------------------------------------------------------------------|
E|-----------------------------------------------------------------------|

 Gtr II
E|------------------------------------------------------------5-|
B|--8-10-11-10--8--6------------------------8-10-11-10--8--6----|
G|--------------------------------------------------------------|
D|--------------------------------------------------------------|
A|--------------------------------------------------------------|
E|--------------------------------------------------------------|
 
 

Видео