Evanescence - Bring Me To Life, аккорды

Прокрутка
Тональность
Шрифт
100
Riff 1: (Verse 1)
e---------------------------------------------------------------------
B------------------------------------------------------------------x2-
G---------------------------------5------------------------------5----
D---22-22-22-22----22-22-22-22-22-5--55-55-55-55--55-55-55-55-55-5----
A---22-22-22-22----22-22-22-22-22-3--55-55-55-55--55-55-55-55-55-3----
E---00-00-00-00----00-00-00-00-00----33-33-33-33--33-33-33-33-33------

Riff 2: (Chorus)
e---------------------------------------------------------------------
B------------------------------------------------------------------x2-
G-------------------7----------(9)---(9)------------------------------
D-2--------5--------7--------2-(9)-2-(9)------------------------------
A-2--------5--------5--------2-(7)-2-(7)------------------------------
E-0--------3--------5--------0-----0----------------------------------

Riff 3: (after Chorus)
e---------------------------------------------------------------------
B---------------------------------------------------------------------
G----------------5----------------------------------------------------
D-22-22-22-22-22-5----------------------------------------------------
A-22-22-22-22-22-3----------------------------------------------------
E-00-00-00-00-00------------------------------------------------------

Riff 1: (Verse 2)
e---------------------------------------------------------------------
B------------------------------------------------------------------x2-
G---------------------------------5------------------------------5----
D---22-22-22-22----22-22-22-22-22-5--55-55-55-55--55-55-55-55-55-5----
A---22-22-22-22----22-22-22-22-22-3--55-55-55-55--55-55-55-55-55-3----
E---00-00-00-00----00-00-00-00-00----33-33-33-33--33-33-33-33-33------

Riff 2: (Chorus)
e---------------------------------------------------------------------
B------------------------------------------------------------------x2-
G-------------------7----------(9)---(9)------------------------------
D-2--------5--------7--------2-(9)-2-(9)------------------------------
A-2--------5--------5--------2-(7)-2-(7)------------------------------
E-0--------3--------5--------0-----0----------------------------------

Riff 4: (Bridge part 1)
e---------------------------------------------------------
B---------------------------------------------------------
G---5---------7--------------------------------------5----
D---5---------7---------22-22-22-22---22-22-22-22-22-5----
A---3---------5---------22-22-22-22---22-22-22-22-22-3----
E---3--5-5-5--5--7-7-7--00-00-00-00---00-00-00-00-00------

e---------------------------------------------------------
B---------------------------------------------------------
G---5---------7-------------------------------------------
D---5---------7---------22-22-22-22---22-22-22-22-22------
A---3---------5---------22-22-22-22---22-22-22-22-22------
E---3--5-5-5--5--7-7-7--00-00-00-00---00-00-00-00-00------

Riff 5: (Bridge part 2)
e|--------------------------------------------------------
B|--------------------------------------------------------
G|--------------------------------------------------------
D|--2/4/5/9/7-/5-/4-/2/4/5/9/7-/5-/4----------------------
A|--2/4/5/9/7-/5-/4-/2/4/5/9/7-/5-/4----------------------
E|--0/2/3/7/5-/3-/2-/0/2/3/7/5-/3-/2----------------------

Riff 6: (Verse 3)
e---------------------------------------------------------------------
B---------------------------------------------------------------------
G---------------------------------5------------------------------5----
D---22-22-22-22----22-22-22-22-22-5--55-55-55-55--55-55-55-55-55-5----
A---22-22-22-22----22-22-22-22-22-3--55-55-55-55--55-55-55-55-55-3----
E---00-00-00-00----00-00-00-00-00----33-33-33-33--33-33-33-33-33------

e---------------------------------------------------------------------
B---------------------------------------------------------------------
G---------------------------------5-----------------------------------
D---22-22-22-22----22-22-22-22-22-5--55-55-55-55--77-77-77-77-77------
A---22-22-22-22----22-22-22-22-22-3--55-55-55-55--77-77-77-77-77------
E---00-00-00-00----00-00-00-00-00----33-33-33-33--55-55-55-55-55------

Riff 2: (Chorus)
e---------------------------------------------------------------------
B------------------------------------------------------------------x2-
G-------------------7----------(9)---(9)------------------------------
D-2--------5--------7--------2-(9)-2-(9)------------------------------
A-2--------5--------5--------2-(7)-2-(7)------------------------------
E-0--------3--------5--------0-----0----------------------------------

Riff 4: (Bridge part 1)
e---------------------------------------------------------
B---------------------------------------------------------
G---5---------7--------------------------------------5----
D---5---------7---------22-22-22-22---22-22-22-22-22-5----
A---3---------5---------22-22-22-22---22-22-22-22-22-3----
E---3--5-5-5--5--7-7-7--00-00-00-00---00-00-00-00-00------

e---------------------------------------------------------
B---------------------------------------------------------
G---5---------7-------------------------------------------
D---5---------7---------22-22-22-22---22-22-22-22-22------
A---3---------5---------22-22-22-22---22-22-22-22-22------
E---3--5-5-5--5--7-7-7--00-00-00-00---00-00-00-00-00------

Riff 7: (Outro)
e|------------------------------------
B|------------------------------------
G|------------------------------------
D|--2/4/5/9/7-/5-/4-/2/4/5/9/7-/5-/2~-
A|--2/4/5/9/7-/5-/4-/2/4/5/9/7-/5-/2~-
E|--0/2/3/7/5-/3-/2-/0/2/3/7/5-/3-/0~-
 
 

Видео