Evanescence - Hello, аккорды

Прокрутка
Тональность
Шрифт
100
Riff 1: x3
(Bm)
E-------------------------------------------------------------
B-----3---3----2---2---------2------3---3----2---2----------2-
G---------------------2---2-------------------------2---2-----        
D---4---4--------4----------------4---4-----------------------
A-2-----------------------------2-----------------------------
E-------------------------------------------------------------

(A)
E------------------------------
B-----------2---------0--------
G-------2--------------------2-
D----2----2---2-----2------2---
A-0----------------------------
E------------------------------

(F#m)
E-------------------------------
B------------2------3-2-2-----2-
G---------------2--------4-2----
D-------4-----------------------
A----4----4---4---4-------------
E-2-----------------------------

Riff 2:
E-----------------------------
B-0-------0---------2-------3-
G-----0-----------------------
D-----------------------------
A-----------------------------
E---3---3----3----3-------3---

E-----------------------------------
B-2-----------------0-------2-------
G---------3-------------------------
D-----------------------------------
A-----4-----------------------------
E---2---2-----2--2------2-2-----2-2-

E------------------------------------2-|
B-3-----0-----0h2--3-----2-----0-------|
G--------------------------------------|
D----4-----4----------4-----4-----4----|
A-2----------------------2-------------|
E--------------------------------------|

E------------------------------------2-
B-3-----0-----0h2--3-----2-----0-------
G--------------------------------------
D----4-----4----------4-----4-----4----
A-0----------------------0-------------
E--------------------------------------

E-----------------------------
B-0-------0---------2-------3-
G-----0-----------------------
D-----------------------------
A-----------------------------
E---3---3--------3--------3---

E------------------------------
B--------------0------2------3-
G------0-----------------------
D------------------------------
A------------------------------
E-32--0---0-0-------0------0---

E--------------------------------
B-----2-------------0------------
G------------------------------3-
D-----------4-----------4------4-
A----------------4---------------
E-0h1/2-------------------------- repeat Riffs 1&2 x2, then outro

Riff 3:
E-----------------------------|-------------------------------------
B-----3---3----2---2--------2-|------3---3----2----2------------2---
G--------------------2---2----|-------------------------2---2-------
D---4---4--------4------------|----4---4----4----4---4----4---4---4-
A-2---------------------------|--2---------------------------------- 
E-----------------------------|-------------------------------------

E-----------------------------|-----------------------------------
B-----3---3----2---2--------2-|------3---3----2---2---------2-----
G--------------------2---2----|----------------------2---2------4-
D---4---4--------4-----4------|----4---4----4---4------4--------4-
A-2---------------------------|--2------------------------------2- 
E-----------------------------|-----------------------------------
 
 

Видео