Evanescence - My Immortal (solo), аккорды

Прокрутка
Тональность
Шрифт
100
Solo:
1|-----------------------|--------------|--------------------|
2|-----------------------|--------------|--------------------|
3|-----------------------|--------------|--6-----------------|
4|---6-7-9-7с-7-6-7-6----|--6-6-7-6-----|----9-7-6-7с-7-6----|
5|-9------------------9с-|----------7---|-----------------9с-|
6|-----------------------|------------9-|--------------------|

1|---------24b25--|-----------------------------------|
2|----------------|-----------------------------------|
3|----------------|-6h7h6----6------------------------|
4|---7-9с---------|--------9---9-7-6-7(7)---------(7)-|
5|-9--------------|-----------------------------------|
6|----------------|-----------------------------------|
 
 

Видео