Запрещают песни Цоя, Агата Кристи, Наутилус Помпилиус, Зиверт
Отвечаем в отдельной теме

Евгений Сорокин - Эльфийская песнь, аккорды

Прокрутка
Тональность
Шрифт
100
E |-----------1--0--1--3--1----|----------------------------|
B |--------3-------------------|--------------------1-------|
G |-----2----------------------|--------0--------2-----2----|
D |--0-------------------------|-----2--------2-------------|
A |----------------------------|--3--------0----------------|
E |----------------------------|----------------------------|

E |-----------1--0--1--3--1----|----------------------------|
B |--------3-------------------|--------------------1-------|
G |-----2----------------------|--------0--------2-----2----|
D |--0-------------------------|-----2--------2-------------|
A |----------------------------|--3--------0----------------|
E |----------------------------|----------------------------|

E |-----------1--0--1--3--1----|----------------------------|
B |--------3-------------------|--------------------1-------|
G |-----2----------------------|--------0--------2-----2----|
D |--0-------------------------|-----2--------2-------------|
A |----------------------------|--3--------0----------------|
E |----------------------------|----------------------------|

E |-----------1--0--1--3--1----|
B |--------3-------------------|
G |-----2----------------------| 
D |--0-------------------------|
A |----------------------------|
E |----------------------------| C Am

Dm A# C Am
Очи - Сапфир.
Dm A# C Am
Губы - Рубин.
Dm A# Gm C
Ты - Эликсир
Dm Gm C Dm
Моих "глубин".

Am

Dm Am
Пусть продолжается
Dm Am
Ночь, где мы с тобой!
Dm Am
Но солнце поднимается,
Dm Am
Там, за рекой.
A# Dm
И мне пора бежать,
A# Am
Туда, во тьму.
A# Dm
Но буду вспоминать
A# Am
Тебя одну.

Dm A# C Am
Очи - Сапфир.
Dm A# C Am
Губы - Рубин.
Dm A# Gm C
Ты - Эликсир
Dm Gm C Dm
Моих "глубин".

Am

Dm Am
Мне солнца свет
Dm Am
Не полюбить никак.
Dm Am
За сотни лет
Dm Am
Я видел только мрак.
A# Dm
Моя стезя темна -
A# Am
Я Эльф ночной.
A# Dm
Душа моя полна
A# Am
Только тобой.

Dm A# C Am
Очи - Сапфир.
Dm A# C Am
Губы - Рубин.
Dm A# Gm C
Ты - Эликсир
Dm Gm C Dm
Моих "глубин".

Am

Dm Am
Молю тебя, Луна,
Dm Am
Звёзды молю -
Dm Am
Не разлучайте нас
Dm Am
С той, что люблю
A# Dm
В душе моей пожар,
A# Am
Но есть спасение.
A# Dm
Я жду Великий дар -
A# Am
Солнца затмение.

Dm A# C Am
Очи - Сапфир.
Dm A# C Am
Губы - Рубин.
Dm A# Gm C
Ты - Эликсир
Dm Gm C Dm
Моих "глубин".

Am

E |-----------1--0--1--3--1----|----------------------------|
B |--------3-------------------|--------------------1-------|
G |-----2----------------------|--------0--------2-----2----|
D |--0-------------------------|-----2--------2-------------|
A |----------------------------|--3--------0----------------|
E |----------------------------|----------------------------|

E |-----------1--0--1--3--1----|----------------------------|
B |--------3-------------------|--------------------1-------|
G |-----2----------------------|--------0--------2-----2----|
D |--0-------------------------|-----2--------2-------------|
A |----------------------------|--3--------0----------------|
E |----------------------------|----------------------------|

E |-----------1--0--1--3--1----|----------------------------|
B |--------3-------------------|--------------------1-------|
G |-----2----------------------|--------0--------2-----2----|
D |--0-------------------------|-----2--------2-------------|
A |----------------------------|--3--------0----------------|
E |----------------------------|----------------------------|

E |-----------1--0--1--3--1----|
B |--------3-------------------|
G |-----2----------------------| 
D |--0-------------------------|
A |----------------------------|
E |----------------------------| C Am

Dm A# C Am
Очи - Сапфир.
Dm A# C Am
Губы - Рубин.
Dm A# Gm C
Ты - Эликсир
Dm Gm C Dm
Моих "глубин".

Outro: Am