Гарик Нержа-веев - Дождь, аккорды

Прокрутка
Тональность
Шрифт
100
    Am          Dm          Am
E|--------0-----------1-------------------0------------|
B|--------1-----------3-----------0h1-----------0h1----|
G|-----2-----2-----2-----2-----2-------2-----2-------2-|x2
D|--------------0--------------------------------------|
A|--0-----------------------0--------------------------|
E|-----------------------------------------------------|
   
 Am      Dm        Am
Мерзкая влага этот дождь
 Am      Dm        Am
Ох, мерзкая влага этот дождь
   C                 G
Замёрзшие птицы, промокшие руки,
 Dm              F      E
Жирные капли стекают с неба
   C                 G
Забытые кем-то обрывки бумаги
 Dm              F      E
Стекают в канаву задумчивой плесенью

 Am      Dm        Am
Я сижу целый день у окна,
 Am      Dm        Am
Я сижу целый день у окна,
   C                 G
Целый день идет дождь
 Dm              F      E
Целый день текут сопли, стекают потоки, уносятся напрочь
   C                 G
Отражают лужи мое отражение
 Dm              F      E
Скалятся мне необузданной глупостью

Проигрыш-куплет (боем) 
Затем Am Dm Am - 2 раза (перебором как во вступлении)

 Am      Dm        Am
Когда же уйдут облака
 Am      Dm        Am
Когда же уйдут облака
   C                 G
Тучи закрыли мне Солнца апельсин
 Dm              F      E
Я не могу больше ждать, я устал от дождя
   C                 G
Я потихонечку превращаюсь в рыбу
 Dm              F      E
Не могу больше ждать, когда же уйдут облака

 Am      Dm        Am
Эх, мерзкая влага этот дождь
 Am      Dm        Am
Эх, мерзкая влага этот дождь...


В куплете аккорды C G Dm F E играются таким перебором:

    C                       G
E|--------0------------0-----------3------------3-----|
B|---------------1------------------------0-----------|
G|-----0-----0------0-----0-----0-----0------0-----0--|
D|----------------------------------------------------|
A|--3-------------------------------------------------|
E|---------------------------3------------------------|

    Dm                     F            E
E|--------1----------1-----------1-------------0------|
B|-------------3-----------------1-------------0------|
G|-----2----2-----2-----2-----2-----2------1------1---|
D|--0-------------------------------------------------|
A|----------------------------------------------------|
E|-------------------------3------------0-------------|

Комментарий автора:

Каподастр на 1 ладу. Аккорды относительно него.

Можно играть перебором "четвёрка".


Автор подбора: Master Aleksey (YouTube, видео с канала прилагается).
 
 
Свернуть Распечатать

Аппликатуры аккордов

Аккорд AmАккорд DmАккорд CАккорд GАккорд FАккорд E
Cap_ScarlettCap_Scarlett
автор подбора аккордов
335 0 14.09.2021

Видео