Запрещают песни Цоя, Агата Кристи, Наутилус Помпилиус, Зиверт
Отвечаем в отдельной теме

Green Day - At The Library, аккорды

Прокрутка
Тональность
Шрифт
100
Intro play 2X
E-----------------------------------------------------------------
B-----------------------------------------------------------------
G-------7-------7-------7-------x-------5-------5-------5-------x-
D-------7-------7-------7-------x-------5-------5-------5-------x-
A-------5-------5-------5-------x-------3-------3-------3-------x-
E-----------------------------------------------------------------
p.m.----- (palm mute) p.m.-----

E-----------------------------------------------------------------
B-----------------------------------------------------------------
G-------7-------7-------7-------x-------5-------5-------5-------x-
D-------7-------7-------7-------x-------5-------5-------5-------x-
A-------5-------5-------5-------x-------3-------3-------3-------x-
E
p.m.----- p.m.-----

E-----------------------------------------------------------------
B-----------------------------------------------------------------
G-------7-------7-------7-------x-------5-------5-------5-------x-
D-------7-------7-------7-------x-------5-------5-------5-------x-
A-------5-------5-------5-------x-------3-------3-------3-------x-
E-----------------------------------------------------------------
p.m.-------- p.m.-----

(hey!)
E-----------------------------------------
B-----------------------------------------
G-------4-------4-------4-------4-------4-
D-------2-------2-------2-------2-------2-
A-------2-------2-------2-------2-------2-
E-----------------------------------------

Then: 4X (you use this part a lot)
E-------------------------------------------------------------------------
B-------------------------------------------------------------------------
G-------------------------------4-------x-------x-------5-------x-------7-
D-------5-------x-------x-------4-------x-------x-------5-------x-------5-
A-------5-------x-------x-------2-------x-------x-------3-------x-------5-
E-------3-------x-------x-------------------------------------------------
G5 B5 C5 D5
(then some impossible solo i can't figure out)

Then play that second pattern up there 8X 
(hey there looking at me...)

Then this (figure out the rhythm) 
(starin' across the room...)
E---------------------------------------------------------
B---------------------------------------------------------
G---------------5---------------5---------------5-------7-
D-------2-------5-------2-------5-------2-------5-------7-
A-------2-------3-------2-------3-------2-------3-------5-
E-------0---------------0---------------0-----------------

Verse 2
Chorus

Then that second part for awhile, and fade to a palm mute
on a G5 chord 
(why did you have to have to leave so soon?...)
and a played out D5 on "away?"

Go to the second guitar part 8X (oh well it happened again...)

The coda's the same as the intro, ending with the impossible
guitar solo, and a powerful G5

G5 B5 C5 D5
hey there looking at me
G5 B5 C5 D5
tell me what Do you see?
G5 B5 C5 D5
but you quickly turn your head A-
G5 B5 C5 D5
way

try to find the words i could use
to have the courage to come on to you
my chance is looking rather
grim

E5 C5
staring across the room
E5 C5
are you leaving soon?
E5 C5 D5
i just need a little time

what is it that drives me mad?
girls like you that i never had
what is it about you that i A-
dorE?
what makes me feel so much pain?
what makes me Go so insane?
what is it about you that i A-
dorE?

staring across the room
are you leaving soon?
i just need a little time,
D5
what time? WAAAAAAA!!!

G5
why did you have to leave so soon?
D5
why did you have to walk away?
 
 

Видео